Guitar Tabs, Chords and Lyrics


We Are To Follow   Blindside



Album: The Great Depression
Tabbed By: Brian Benzinger
Tuning: Drop D (D,A,D,G,B,E)

Well this is my 5th blindside song I've tabbed, and also the 5th
I've ever tabbed. Comment and rate plz.

Verse 1
-|-------------------------------------------------------------------|
-|-------------------------------------------------------------------|
-|-------------------------------------------------------------------|
-|-4-4-4-4-4-4-x-x-x-x-x-x-4-4-4-4-4-4-4-4-4-4-0-0-0-0-0-0-x-x-x-x-x-|
-|-4-4-4-4-4-4-x-x-x-x-x-x-4-4-4-4-4-4-4-4-4-4-0-0-0-0-0-0-x-x-x-x-x-|
-|-4-4-4-4-4-4-x-x-x-x-x-x-4-4-4-4-4-4-4-4-4-4-0-0-0-0-0-0-x-x-x-x-x-|

---------------------------------------------------------------------|
---------------------------------------------------------------------|
---------------------------------------------------------------------|
-0-0-0--0-0--0-0-0-2-2-4-4-4-4-4-4-x-x-x-x-x-4-4-4-4-4-4-4-4-4-4-4-4-|
-0-0-0--0-0--0-0-0-2-2-4-4-4-4-4-4-x-x-x-x-x-4-4-4-4-4-4-4-4-4-4-4-4-|
-0-0-0--0-0--0-0-0-2-2-4-4-4-4-4-4-x-x-x-x-x-4-4-4-4-4-4-4-4-4-4-4-4-|

---------------------------------------------------------------------|
---------------------------------------------------------------------|
---------------------------------------------------------------------|
-0-0-0-0-x-x-x-x-x-0-0-0--0-0--0-0-0-2-2-4-4-4-4-4-4-x-x-x-x-x-4-4-4-|
-0-0-0-0-x-x-x-x-x-0-0-0--0-0--0-0-0-2-2-4-4-4-4-4-4-x-x-x-x-x-4-4-4-|
-0-0-0-0-x-x-x-x-x-0-0-0--0-0--0-0-0-2-2-4-4-4-4-4-4-x-x-x-x-x-4-4-4-|

-----------------------------------------------------------------|
-----------------------------------------------------------------|
-----------------------------------------------------------------|
-4-4-4-4-4-4-4-4-4-4-4-4-0-0-0-0-x-x-x-x-x-0-0-0--0-0--0-0-0-2-2-|
-4-4-4-4-4-4-4-4-4-4-4-4-0-0-0-0-x-x-x-x-x-0-0-0--0-0--0-0-0-2-2-|
-4-4-4-4-4-4-4-4-4-4-4-4-0-0-0-0-x-x-x-x-x-0-0-0--0-0--0-0-0-2-2-|

Main Riff (4x)
-|-------------------------------|
-|-------------------------------|
-|-------------------------------|
-|-------------------------------|
-|-------------------------------|
-|-4-4-4-6-6-6-3-3-3-7-7-7-0-0-0-|

Chorus
-|-------------------------------------------------------------------|
-|-------------------------------------------------------------------|
-|-------------------------------------------------------------------|
-|-6-6-6-6-6-6-x-x-x-x-x-6-6-6-6-6-6-6-6-6-6-2-2-2-2-2-2-2-2-4-4-6-6-|
-|-6-6-6-6-6-6-x-x-x-x-x-6-6-6-6-6-6-6-6-6-6-2-2-2-2-2-2-2-2-4-4-6-6-|
-|-6-6-6-6-6-6-x-x-x-x-x-6-6-6-6-6-6-6-6-6-6-2-2-2-2-2-2-2-2-4-4-6-6-|

-------------------------------------------------------------|
-------------------------------------------------------------|
-------------------------------------------------------------|
-6-6-6-6-6-x-x-x-x-x-6-6-6-6-6-6-6-6-2-2-2-2-2-2-2-2-2-2-4-4-|
-6-6-6-6-6-x-x-x-x-x-6-6-6-6-6-6-6-6-2-2-2-2-2-2-2-2-2-2-4-4-|
-6-6-6-6-6-x-x-x-x-x-6-6-6-6-6-6-6-6-2-2-2-2-2-2-2-2-2-2-4-4-|

Verse 2 (Same as Verse 1)

Main Riff (4x)

Chorus

Christian is talking in this part (4x)- you can also hear bass
-|-------------------------------|
-|-------------------------------|
-|-------------------------------|
-|-------------------------------|
-|-------------------------------|
-|-4-4-4-6-6-6-3-3-3-7-7-7-0-0-0-|

Main Riff (4x)

Chorus

Main Riff (4x)

Outro
-|-------|
-|-------|
-|-------|
-|-7-6-4-|
-|-7-6-4-|


Important: The song above is NOT stored on the Chordie server. The original song is hosted at www.guitaretab.com. Chordie works as a search engine and provides on-the-fly formatting. Chordie does not index songs against artists'/composers' will. To remove this song please click here.

This song is displayed as text-only. Transposing and tuning is only available for chordpro-songs.

Login - add to songbook

Rating click stars to rate

Layout
Accuracy

SHARE PAGE  




You need to log in to post comments