All The Small Things

Blink 182

e|-----------------------------------------|

B|---------------66666666------------------|
G|------55555555-55555555------------------|
D|-5-3--55555555-33333333-55555555-5-----3-|
A|-5-3--33333333----------55555555-5-----3-|
E|-3-1--------------------33333333-3-----1-|

 C5G5
 All the small things
 F5G5
 True care truth brings
 C5G5
 I'll take one lift
 F5G5
 You're ride best trip

Verse2:
 C5G5
 Always I know
 F5G5
 You'll be at my show
 C5G5
 Watching, waiting
 F5G5
 Commiserating

Bridge:
C5 (let ring)
Say it ain't so
 G5
I will not go
 F
Turn the lights off Carry me home

 C5G5F5
 Nananananananananana nanananananananana na (repeat)

repeat intro (x2)

Verse3:
 C5
 Late night
 G5
 Come home
 F5
 Work sucks
 G5
 I know

Verse4:
 C5G5
 She left me roses by the stairs
 F5G5
 Surprises let me know she cares

Bridge

Instrumental: C (barre) F (barre) G (barre) (x4)

Bridge (x2; 2nd time without nanana...)

 End
___________________________________________________________________________
Thats the chords:
C (barre) F (barre) G (barre) C5 F5 G5 F5 (in the intro)
e|--3----------1---------3-------------------------------------------------|
B|--5----------1---------3----------------------6--------------------------|
G|--5----------2---------4---------5------------5--------------------------|
D|--5----------3---------5---------5---3---5----3--------------------------|
A|--3----------3---------5---------3---3---5-------------------------------|
E|-(3)---------1---------3-------------1---3-------------------------------|				



C5 F F5 G5
variations - click chord images
Transpose chords:
Tuning:
Cool service:
View: Size:
A  A  A
Rating:
Layout:
  • Currently 2.5/5 Stars.
  • 1
  • 2
  • 3
  • 4
  • 5
 
Accuracy:
  • Currently 2.6/5 Stars.
  • 1
  • 2
  • 3
  • 4
  • 5
 
click stars to rate
Chordie recommends:
Get acoustic guitar lessons and electric guitar lessons at JamPlay.com
Songbook:
Login to add this song to your songbook
Support the artist
Preview/buy this song
MSN Music
Why this non-profit ad?

 
login to add comments/video/corrections