Guitar Tabs, Chords and Lyrics


All The Small Things   Blink 182



All The Small Things (Standard Tuning)
Tabbed by Paul Reeves wickedshit19@hotmail.com

Intro
E-----------------
B-----------------
G-----------------
D-5-3-------------
A-5-3-------------
E-3-1-------------

Riff A
E----------------------------------------------------
B----------66666666----------------------------------
G-55555555-55555555----------------------------------
D-xxxxxxxx-33333333-55555555--xxxx--3333-----
A-33333333----------55555555--xxxx--3333-----
E-------------------33333333--xxxx--1111-----

Riff B(Palm Mute)
E-------------------------------------------------
B-------------------------------------------------
G-------------------------------------------------
D-55555555--------------------------------
A-33333333-55555555-33333333-55555555-----
E----------33333333-11111111-33333333-------------
Bridge

E----------------
B--5-------------
G--5-------------
D--3-------------
A---------------- Say it aint so.......
E----------------

Riff C
E------------------------------------
B------------------------------------
G-5555555555555555-------------------
D-5555555555555555-55555555-33333333-
A-3333333333333333-55555555-33333333-
E------------------33333333-11111111-

Riff D
E--------------------------------------------
B--------------------------------------------
G-55555555-10101010-9999-77777777-xxxx-555---
D-55555555-10101010-9999-77777777-xxxx-555---
A-33333333--8-8-8-8-7777-55555555-xxxx-333---
E--------------------------------------------

Interlude
E---------------------------------------------
B---------------------------------------------
G-5-5-5-5-5-5-5-5-5-5-5-5-4-4-4-4------------
D--5-5-5-5-5-5-5-5-5-5-5-5-5-5-5-5-----------
A---------------------------------------------
E---------------------------------------------

Ending(several times)
E-----------------
B-----------------
G-----------------
D-xx-3------------
A-xx-3------------
E-xx-1------------

Order:
Intro
Riff A x2
Riff B x4
Bridge
Riff C x2
Riff D x2
Riff B x2
Bridge
Riff C x2
Interlude x3
Riff C x4


Important: The song above is NOT stored on the Chordie server. The original song is hosted at www.guitaretab.com. Chordie works as a search engine and provides on-the-fly formatting. Chordie does not index songs against artists/composers will. To remove this song please click here.

This song is displayed as text-only. Transposing and tuning is only available for chordpro-songs.

Login - add to songbook

Rating click stars to rate

Layout
Accuracy

SHARE PAGE  




You need to log in to post comments