Guitar Tabs, Chords and Lyrics


Anthem Part 2   Blink 182



Intro
------------------
-8-8-6-6-5-5-6-6--
--5-5-5-5-5-5-5-5-
------------------
------------------
------------------

-------------------------------------------
-------------------------------------------
-------------------------------------------
-------2h3--2----2h3---2---2h3--2---0---0--
----33--------33---------33-------33--33---
-------------------------------------------

---------------------------------------------------------------
---------------------------------------------------------------  
-9-10--9--5--7----9-10--9--5--7---7-10--9--5--7----9-10--5~~~~-  
---------------------------------------------------------------  
-7--8--7--3--5----7--8--7--3--5---7--8--7--3--5----7--8--3~~~~-  
---------------------------------------------------------------

Verse
--------------- 
---------------  
-5-------------  
-x-------------Hold
-3-------------  
---------------

-----------------------------------------------------------------
-----------------------------------------------------------------  
-----------------------------------------------------------------  
-5-5-5-5-5-5-5-5-5-5-5-5-5-5-5-5---------------------------------  
-3-3-3-3-3-3-3-3-3-3-3-3-3-3-3-3-7-7-7-7-7-7-7-7-5-5-5-5-5-5-5-5-  
---------------------------------5-5-5-5-5-5-5-5-3-3-3-3-3-3-3-3-

Chorus
-----------------------------------------------------------------
-----------------------------------------------------------------  
-----------------------------------------------------------------  
---------------------------------5-5-5-5-5-5-5-5----------------- 
-7-7-7-7-7-7-7-7-3-3-3-3-3-3-3-3-3-3-3-3-3-3-3-3-5-5-5-5-5-5-5-5-  


Important: The song above is NOT stored on the Chordie server. The original song is hosted at www.guitaretab.com. Chordie works as a search engine and provides on-the-fly formatting. Chordie does not index songs against artists'/composers' will. To remove this song please click here.

This song is displayed as text-only. Transposing and tuning is only available for chordpro-songs.

Login - add to songbook

Rating click stars to rate

Layout
Accuracy

SHARE PAGE  




You need to log in to post comments