All The Small Things

Blink 182


Title: All The Small Things Artist: Blink 182 Tabed By: Adam Widing (KaFFe_DrIcK@hotmail.com)
Intro:
e|----------------------------------------------------------- b|----------------------------------------------------------- g|------------5555555---10 10-10-10-10-10-10----------------- d|-5-3--------5555555---10 10-10-10-10-10-10--5555555-------- a|-5-3--------3333333---8-- 8- 8 -8--8--8- 8--5555555-------- e|-3-1-------------------------------------- 3333333--------
e|----------------------- b|----------------------- g|----------------------- d|-3-x-x-x-33------------ a|-3-x-x-x-33------------ e|-1-x-x-x-11------------
Verse 1.
|---------------------------------------- |---------------------------------------- |----5555555----------------------------- |----5555555--5555555--3333333-5555555--- |----3333333--5555555--3333333-5555555--- |-------------3333333--1111111-3333333---
Repeat 4x
All the , small things True care, truth brings I'll take, one lift Your ride, best trip Always, I know You'll be at my show Watching, waiting, commiserating
Say it ain't so, I will not go, turn the lights off, carry me home
|------------- |------------- |----5-------- |----5--5--3--
|----3--5--3-- |-------3--1--
Na, na·
|------------------------------ |------------------------------ |---5555555555----------------- |---5555555555--555555-33333--- |---3333333333--555555-33333--- |---------------333333-11111---
Verse 2.
|---------------------------------------- |---------------------------------------- |----5555555----------------------------- |----5555555--5555555--3333333-5555555--- |----3333333--5555555--3333333-5555555--- |-------------3333333--1111111-3333333---
Repeat 4x
Late night, come home Work sucks, I know She left me roses by the stairs, surprises let me know she cares
Say it ain't so, I will not go, turn the lights off, carry me home
|------------- |------------- |----5-------- |----5--5--3-- |----3--5--3-- |-------3--1--
Na, na·
|------------------------------ |------------------------------ |---5555555555----------------- |---5555555555--555555-33333--- |---3333333333--555555-33333--- |---------------333333-11111---
Say it ain't so, I will not go, turn the lights off, carry me home Keep your head still, I'll be your thrill, the night will go on, my little windmill Say it ain't so, I will not go, turn the lights off, carry me home Keep your head still, I'll be your thrill, the night will go on, my little windmill
|------------- |------------- |----5-------- |----5--5--3-- |----3--5--3-- |-------3--1--



















variations - click chord images
Transpose chords:
Tuning:
Cool service:
View: Size:
A  A  A
Rating:
Layout:
  • Currently 0/5 Stars.
  • 1
  • 2
  • 3
  • 4
  • 5
 
Accuracy:
  • Currently 3/5 Stars.
  • 1
  • 2
  • 3
  • 4
  • 5
 
click stars to rate
Chordie recommends:
Get acoustic guitar lessons and electric guitar lessons at JamPlay.com
Songbook:
Login to add this song to your songbook
Support the artist
Preview/buy this song
MSN Music
Why this non-profit ad?

 
login to add comments/video/corrections