Stay Together For The Kids

Blink 182

-------------------------------------------------------------------------------

-------------------------------------------------------------------------------
-------------------------------------------------------------------------------

 DBmAG
e|--2---x---0---3---|
B|--3---3---2---3---|
G|--2---4---2---0---|
D|--0---4---2---0---|
A|--0---2---0---2---|
E|--x---x---x---3---|
-------------------------------------------------------------------------------


 D
 It's hard to wake up
 Bm
 When the shades have been pulled shut
 A
 This house is haunted, it's so pathetic, it makes no sense at all.
 D
 I'm ripe with things to say
 Bm
 The words rot and fall away.
 A
 If a stupid poem could fix this home I'd read it every day.

Chorus
 D
So here's your holiday, hope you enjoy it this time, you gave it all away
 GD
It was mine, so when you're dead and gone
 GD
Will you remember this night, Twenty years now lost? It's not right

-------------------------------------------------------------------------------


And then it's the same pattern as the first verse for the second

During the bridge, play D-A-G-A repeating throughout, then the chorus rhythm starts
and repeats until the end of the song.

Thanks for bearing with me, and I hope these chords help.





A Bm D G
variations - click chord images
Transpose chords:
Tuning:
Cool service:
View: Size:
A  A  A
Rating:
Layout:
  • Currently 3/5 Stars.
  • 1
  • 2
  • 3
  • 4
  • 5
 
Accuracy:
  • Currently 3.7/5 Stars.
  • 1
  • 2
  • 3
  • 4
  • 5
 
click stars to rate
Chordie recommends:
Learn to play guitar with video-based, online guitar lessons at JamPlay.com
Songbook:
Login to add this song to your songbook
Support the artist
Preview/buy this song
MSN Music
Why this non-profit ad?

 
login to add comments/video/corrections