Chordie logo


All The Small Things   Blink 182



Hey look at this tab!!! IT's very easy to play this song!!!This the official way of all the small thing!!!

e-----------------------------------------e
B---------------6-------------------------B
G--------5------5(8x)---------------------G repeat twice
D-5--3---5(8x)--3-------5-----0-----3-----D
A-5--3---3--------------5(8x)-0(3x)-3(3X)-A
E-3--1------------------3-----0-----1-----E

  Palm mute
all the small things ...
e------------
B------------
G-5----------
D-5--5--3--5-(4x)
A-3--5--3--5-
E----5--1--3-

Na na na ...

e-----------------------
B-----------------------
G--5--------------------
D--5(x8)-5------3------- repeat twice
A--3-----5-(x8)-3-(x8)--
E--------3------1-------
e-----------------------------------------------------------
B-----------------------------------------------------------
G--5------10-------9----------------------------------------
D--5-(x8)-10-(x4)--9-(x4)--5--------0-------3--------------- repeat twice
A--3-------8-------7-------5--(x8)--0--(x3)-3-(x3)----------
E--------------------------3--------0-------1---------------

 palm mute
e------------          e----------------------------
B------------          B----------------------------
G-5----------          G--5-------------------------  bass going!!!
D-5--5--3--5-(2x) then D--5-(x1)--3-------5---------
A-3--5--3--5-          A--3-------3-(x1)--5-(x1)----
E----5--1--3-          E----------1-------3---------

         palm mute
e----------------       
B----8------8------6------6------5------5----6--6-               
G--5---5--5---5--5---5--5---6--5---5--5---5-------    
D-------------------------------------------------
A-------------------------------------------------      
E-------------------------------------------------

       palm mute
e-------------------------------------------
B-------------------------------------------
G--5----------------------------------------          
D--5-(x8)-3------5--------------------------
A--3------3-(x8)-5--(x8)--------------------
E---------1------3--------------------------
Say it ain't so...
                           Palm mute
e-----------------------e-----------------
B-----------------------B-----------------
G--5--------------------G-----------------
D--5(x8)-5------3-------D--3--------------- repeat twice
A--3-----5-(x8)-3-(x8)--A--3--(x3)-------------
E--------3------1-------E--1---------------
e--------
B--------
G--------
D--5-----
A--5-----
E--3-----



Important: The song above is NOT stored on the Chordie server. The original song is hosted at www.guitaretab.com. Chordie works as a search engine and provides on-the-fly formatting. Chordie does not index songs against artists/composers will. To remove this song please click here.

This song is displayed as text-only. Transposing and tuning is only available for chordpro-songs.

Login - add to songbook

Rating click stars to rate

Layout
Accuracy

SHARE PAGE  




You need to log in to post comments