Guitar Tabs, Chords and Lyrics


All The Small Things   Blink 182



This song is played with two guitars

Intro: 2x

E-----------------------------------------------------------------------
B-----------------------------------------------------------------------
G------5-5-5-5-5-5-5-5-1010101010101010---------------------------------
D-5-3--3-3-3-3-3-3-3-3-8-8-8-8-8-8-8-8-5-5-5-5-5-5-5-5-3-3-3-3-3--5-3-3-
A-5-3--3-3-3-3-3-3-3-3-8-8-8-8-8-8-8-8-5-5-5-5-5-5-5-5-3-3-3-3-3--5-3-3-
E-3-1----------------------------------3-3-3-3-3-3-3-3-1-1-1-1-1--3-1-1-
                                                      |----PM---|
Verse: 4x  (verse2: 2x)

E-----------------------------------------------------------------
B-----------------------------------------------------------------
G-5-5-5-5-5-5-5-5-------------------------------------------------
D-5-5-5-5-5-5-5-5-5-5-5-5-5-5-5-5-3-3-3-3-3-3-3-3-5-5-5-5-5-5-5-5-
A-3-3-3-3-3-3-3-3-5-5-5-5-5-5-5-5-3-3-3-3-3-3-3-3-5-5-5-5-5-5-5-5-
E-----------------3-3-3-3-3-3-3-3-1-1-1-1-1-1-1-1-3-3-3-3-3-3-3-3-
 

Pre-Chorus:
E---                E-------
B---                B-------
G-5-                G-5-----
D-5-                D-5-5-3-
A-3-                A-3-5-3-
E---                E---3-1-
                     na,na,na,na

(first guitar) 2x
E--------------------------------------------------------------------
B--------------------------------------------------------------------
G-5-5-5-5-5-5-5-5-1010101010101010-----------------------------------
D-3-3-3-3-3-3-3-3-8-8-8-8-8-8-8-8--5-5-5-5-5-5-5-5--3-3-3-3-3--5-3-3-
A-3-3-3-3-3-3-3-3-8-8-8-8-8-8-8-8--5-5-5-5-5-5-5-5--3-3-3-3-3--5-3-3-
E----------------------------------3-3-3-3-3-3-3-3--1-1-1-1-1--3-1-1-
                                                   |----PM---| 

(second guitar) 2x
E--------------------------------------------------------------------
B--------------------------------------------------------------------
G-5-5-5-5-5-5-5-5-10101010-9-9-9-9-7-7-7-7-7-7-7-7-------------------
D-3-3-3-3-3-3-3-3-8-8-8-8--7-7-7-7-5-5-5-5-5-5-5-5--3-3-3-3-3--5-3-3-
A-3-3-3-3-3-3-3-3-8-8-8-8--7-7-7-7-5-5-5-5-5-5-5-5--3-3-3-3-3--5-3-3-
E---------------------------------------------------1-1-1-1-1--3-1-1-
                                                   |----PM---|

(first guitar) 4x
E----------
B----------
G-5~~------
D-5~~5~~3~~
A-3~~5~~3~~
E----3~~1~~

(second guitar) 4x
E----------------------------------
B----------------------------------
G-5-5-5-5-5-5-5-5-5-5-4-4-4-4-4-4--
D--5-5-5-5-5-5-5-5-5-5-5-5-5-5-5-5-
A----------------------------------
E----------------------------------

End: 4x

E-------------------------------------------------
B-------------------------------------------------
G-5-5-5-5-5-5-5-5---------------------------------
D-5-5-5-5-5-5-5-5-5-5-5-5-5-5-5-5-3-3-3-3-3-3-3-3-
A-3-3-3-3-3-3-3-3-5-5-5-5-5-5-5-5-3-3-3-3-3-3-3-3-
E-----------------3-3-3-3-3-3-3-3-1-1-1-1-1-1-1-1-


Important: The song above is NOT stored on the Chordie server. The original song is hosted at www.guitaretab.com. Chordie works as a search engine and provides on-the-fly formatting. Chordie does not index songs against artists/composers will. To remove this song please click here.

This song is displayed as text-only. Transposing and tuning is only available for chordpro-songs.

Login - add to songbook

Rating click stars to rate

Layout
Accuracy

SHARE PAGE  




You need to log in to post comments