Guitar Tabs, Chords and Lyrics


Action   Blink 182



Intro: 
E|------------------| 
B|------------------| 
D|-9999-9999/13-----| 
G|-xxxx-xxxx-x------| 
A|-7777-7777/11-----| 
E|------------------|


E|--------------------------------|
B|--------------------------------|
D|--------------------------------|
G|----9-----6-----9-------6-------|
A|-7-----9-----7-----9-9-----9--7-|
E|--------------------------------|


Buildup to verse: 
E|------------------| 
B|------------------| 
D|-9-11-13-14-------| 
G|-x-x--x--x--------| 
A|-7-9--11-12-------| 
E|------------------| 

Verse: 
E|------------------| 
B|------------------| 
D|-9999-9999/13-----| 
G|-xxxx-xxxx-x------| 
A|-7777-7777/11-----| 
E|------------------| 

Buildup to chorus: 
E|------------------| 
B|------------------| 
D|---4-6-2----------| 
G|-2-4-6-2----------| 
A|-2-2-4-0----------| 
E|-0----------------| 
PM . . . . 

Chorus: 
E|------------------| 
B|------------------| 
D|---4-6-2----------| 
G|-2-4-6-2----------| 
A|-2-2-4-0----------| 


Important: The song above is NOT stored on the Chordie server. The original song is hosted at www.guitaretab.com. Chordie works as a search engine and provides on-the-fly formatting. Chordie does not index songs against artists'/composers' will. To remove this song please click here.

This song is displayed as text-only. Transposing and tuning is only available for chordpro-songs.

Login - add to songbook

Rating click stars to rate

Layout
Accuracy

SHARE PAGE  




You need to log in to post comments