Chordie logo

Carousel Live   Blink 182










Author/Artist: Blink 182
Title: Carousel intro
Album: The Mark Tom and Travis Show
Transcribed by: punkrawker
Email: punkrawker245@aol.com

sup guyz i just thought i put up the live version intro.
its a cool song, any corrections e-mail me
punkrawker245@aol.com

Standard Tuning    E A D G B E

------------------------------------------------------------------------------|
------------------------------------------------------------------------------|
---7--------------------------------------------------------------------------|
---7-x4----7---------9------------5-------------------------------------------|
---5-------7--x4-----9-x4---------5-x4-------------------x2-------------------|
-----------5---------7------------3-------------------------------------------|
       basically play D A B G play it twice with middle distortion

------------------------------------------------------------------------------|
------------------------------------------------------------------------------|
------------------------------------------------------------------------------|
------------------------------------------------------------------------------|
---4--5----4-5-5-5-5-5-5-5-5-5--7-5-4-5----x2---------------------------------|
------------------------------------------------------------------------------|
   this is the single noted part of it.

------------------------------------------------------------------------------|
------------------------------------------------------------------------------|
------------------------------------------------------------------------------|
------------------------------------------------------------------------------|
--7--9-9-9-10-7-7-7--9-9-9-7-10-12-12-7-9-9-9-10-7-7-7--0h4-0h4-0h5-0h5-------|
------------------------------------------------------------------------------|


Important: The song above is NOT stored on the Chordie server. The original song is hosted at www.guitaretab.com. Chordie works as a search engine and provides on-the-fly formatting. Chordie does not index songs against artists/composers will. To remove this song please click here.

This song is displayed as text-only. Transposing and tuning is only available for chordpro-songs.

Login - add to songbook

Rating click stars to rate

Layout
Accuracy

SHARE PAGE  



You need to log in to post comments