Guitar Tabs, Chords and Lyrics


Dammit Interlude   Blink 182









Dammit Interlude

Blink 182

by Brian S.

e||----------------------------------------------------------||
b||-5~----------3~-5---------5~---------3~-5~----3~-5~-------||
g||----5~-------------5~~~~-----5~------------3--------3~----||
d||-------5~~~~--------------------5~~~----------------------||
a||----------------------------------------------------------||
e||----------------------------------------------------------||

e||----------------------------------------------------------||
b||-5~----------3~-5---------5~---------3~-5~----3~-5~-------||
g||----5~-------------5~~~~-----5~------------3--------3~----||
d||-------5~~~~--------------------5~~~----------------------||
a||----------------------------------------------------------||
e||----------------------------------------------------------||
                                                          Well I guess this is growing up

e||-------------------------------------------------||
b||-------------------------------------------------||
g||-------------------------------------------------||
d||-----0-0-2-------0--0--2-----0--0--2-----2-2-0---||
a||-3-3----------------------0~---------------------||


Important: The song above is NOT stored on the Chordie server. The original song is hosted at www.guitaretab.com. Chordie works as a search engine and provides on-the-fly formatting. Chordie does not index songs against artists'/composers' will. To remove this song please click here.

This song is displayed as text-only. Transposing and tuning is only available for chordpro-songs.

Login - add to songbook

Rating click stars to rate

Layout
Accuracy

SHARE PAGE  




You need to log in to post comments