Harder Dan Ik Hebben Kan

Blof

Em    = 0-2-2-0-0-0-|

C = x-3-2-0-1-0-|
D = x-x-0-2-3-2-|
Dsus4 = x-x-0-2-3-3-|
Bm = x-2-4-4-3-2-|
D/F# = 2-0-0-2-3-2-|
G = 3-2-0-0-0-3-|
E |-----5-------------5-----------5-----5-----|
B |-2h3---3-2---0-2h3---3~~---2h3---3-3---3~~-|
G |-------------------------------------------|
D |-------------------------------------------|
A |-------------------------------------------|
E |-------------------------------------------|

 EmCDC
Je buien maken vlekken op mijn hagelwit humeur
 D
 Ik heb m'n handen op je heupen, maar m'n hoofd is bij de deur
 EmCDC
Ze zeggen dat het went, Ik heb het geprobeerd
 DEmD
Maar hoe ik het ook wend of keer, M'n huis beschermt niet meer

 BmD/F#
Het regent harder dan ik hebben kan
 GD/F#EmDG
 Harder dan ik drinken kan  
 BmD/F#
Het regent harder dan de grond aankan
 GD/F#EmDG
 Harder dan ik hebben kan   

Je buien zijn de wolken aan mijn hemelsblauw humeur
Ik heb m'n handen op je heupen, maar m'n hoofd is bij de deur
Je ogen blijven grijs, ontkennen elke kleur
Het is alsof hier niemand woont, alsof er niets gebeurt

(intro riff)
 BmD/F#
Het regent harder dan ik hebben kan
 GD/F#EmDG
 Harder dan ik drinken kan  
 BmD/F#
Het regent harder dan de grond aankan
 GD/F#EmDG
 Harder dan ik hebben kan   

Solo:
 E------------------------------------------------------------------------------|
 B------------------------------------------------------------------------------|
 G-----------7-9p7--9b10r9p7--9p7------------7-9p7--9b10r9~-7-7~~---------------|
 D-------7h9----------------------9~~----7h9------------------------------------|
 A--9---------------------------------------------------------------------------|
 E--9---------------------------------------------------------------------------|
 E-----------------------------------------------------------------------------|
 B-----------------10--------------------15b16-15b16r15P12---------------------|
 G------7-9p7--9b10--10r9-9~-7~~---------------------------14b15r14P12--14p12--|
 D--7h9----------------------------X-X-----------------------------------------|
 A---------------------------------X-X-----------------------------------------|
 E-----------------------------------------------------------------------------|
 E---------------------------------------------------------------------------|
 B--------12--------------12-----12---12~~-----------------------------------|
 G--------12--------------12-----12--11~~----11h12-11-----11h12-11-----------|
 D--14-12----14-14~----------X-X----------------------12-----------12-12/14--|
 A------------------12h14----X-X---------------------------------------------|
 E---------------------------------------------------------------------------|
 E--------------------------------------------12-----------------------------|
 B--------------------------------------------12-----------------------------|
 G--------------11-11h12-11~--11-12-12h14-12---------------------------------|
 D--12h14-12H14--------------------------------------------------------------|
 A---------------------------------------------------------------------------|
 E---------------------------------------------------------------------------|


Je buien zijn te donker voor mijn hemelsblauw humeur
Want mijn hoofd is in de wolken en m'n hand al bij de deur

 BmD/F#
Het regent harder dan ik hebben kan
 GD/F#EmDG
 Harder dan ik drinken kan  
 BmD/F#
Het regent harder dan de grond aankan
 GD/F#EmDG
 Harder dan ik hebben kan   

 BmD/F#
Het regent harder dan ik hebben kan
 GD/F#EmDG
 Harder dan ik drinken kan 
 BmD/F#
Het regent harder dan de grond aankan
 GD/F#EmDG
 Harder dan ik hebben kan   


Bm C D D/F# Em G
variations - click chord images
Transpose chords:
Tuning:
Cool service:
View: Size:
A  A  A
Rating:
Layout:
  • Currently 3.2/5 Stars.
  • 1
  • 2
  • 3
  • 4
  • 5
 
Accuracy:
  • Currently 2.4/5 Stars.
  • 1
  • 2
  • 3
  • 4
  • 5
 
click stars to rate
Chordie recommends:
Learn to play songs at Jamplay.com with video guitar lessons
Songbook:
Login to add this song to your songbook
Support the artist
Preview/buy this song
MSN Music
Why this non-profit ad?

 
login to add comments/video/corrections