Doll Is Mine

Blonde Redhead

-------------------------------------------------------------------------------

-------------------------------------------------------------------------------

 C#m
e|--9----------------------------------------------------------------------------|
B|--9----------------------------------------------------------------------------|
G|--9----------------------------------------------------------------------------|
D|--11---------------------------------------------------------------------------|
A|-------------------------------------------------------------------------------|
E|-------------------------------------------------------------------------------|


First Half:

Another guitar kicks in, strumming the same chords with a pick ,distortion and slight variations.

Verse:

(Mine is an act of love..)

 C#mD#m/5-EmC#mG#m/5-F#mC#mG#
e|--9---5------9---9---6-----5---4---4----------|
B|--9---7------9---9---8-----7---5---4----------|
G|--9---8------10--9---6-----6---6---5------X2--|
D|--11--7------11--11--8-----7---6---6----------|
A|----------------------------------------------|
E|----------------------------------------------|


Chorus:

(Why a doll, so they tell me...)

 G#C#mC#F#mG#C#mG#m/5-D#m/5-
e|--4--4---4---5---4--4----6-----5--|
B|--4--5---6---7---4--5----8-----7--|
G|--5--6---6---6---5--6----6-----8--|
D|--6--6---6---7---6--6----8-----7--|
A|----------------------------------|
E|----------------------------------|


(I must say this love...)

 C#mD#m/5-Dm/5-F#mG#C#mG#C#m
e|--9---5------4-----5---4--4---4--4--|
B|--9---7------6-----7---4--5---4--5--|
G|--9---8------7-----6---5--6---5--6--|
D|--11--7------6-----7---6--6---6--6--|
A|------------------------------------|
E|------------------------------------|


(Intro again)

Notice for this verse the finger picked guitar volume is lowered, so u only hear the
guitar strumming the chords (and of course the violins and the drums envelopping the song
and more).

Verse:

(I must have seen too much skin...)

 C#mD#m/5-EmC#mG#m/5-F#mC#mG#
e|--9---5------9---9---6-----5---4---4----------|
B|--9---7------9---9---8-----7---5---4----------|
G|--9---8------10--9---6-----6---6---5------X1--|
D|--11--7------11--11--8-----7---6---6----------|
A|----------------------------------------------|
E|----------------------------------------------|


(I must have felt so much pain...)

Odd part but i really love it.

C#m D#m/5- Em C#m G# C#m ...
e|--9---5------9---9---4--4--4--4--4--4--4--4--4--|
B|--9---7------9---9---4--5--4--5--4--5--4--5--4--|
G|--9---8------10--9---5--6--5--6--5--6--6--6--5--|
D|--11--7------11--11--6--6--6--6--6--6--6--6--6--|
A|------------------------------------------------|
E|------------------------------------------------|


(Why a doll, so they tell me...)

 G#C#mC#F#mG#C#mG#m/5-D#m/5-
e|--4--4---4---5---4--4----6-----5--|
B|--4--5---6---7---4--5----8-----7--|
G|--5--6---6---6---5--6----6-----8--|
D|--6--6---6---7---6--6----8-----7--|
A|----------------------------------|
E|----------------------------------|


(I must say this love...)

 C#mD#m/5-Dm/5-F#mG#C#mG#C#m
e|--9---5------4-----5---4--4---4--4--|
B|--9---7------6-----7---4--5---4--5--|
G|--9---8------7-----6---5--6---5--6--|
D|--11--7------6-----7---6--6---6--6--|
A|------------------------------------|
E|------------------------------------|


Enjoy and bravo to Blonde Redhead for the song, been obsessing me for months now.
===============================================================================


C# C#m Em F#m G#
variations - click chord images
Transpose chords:
Tuning:
Cool service:
View: Size:
A  A  A
Rating:
Layout:
  • Currently 3/5 Stars.
  • 1
  • 2
  • 3
  • 4
  • 5
 
Accuracy:
  • Currently 3.3/5 Stars.
  • 1
  • 2
  • 3
  • 4
  • 5
 
click stars to rate
Chordie recommends:
Get acoustic guitar lessons and electric guitar lessons at JamPlay.com
Songbook:
Login to add this song to your songbook
Support the artist
Preview/buy this song
MSN Music
Why this non-profit ad?

 
login to add comments/video/corrections