Chordie logo

Josh Blair   Blood Chunk








Date: Mon, 27 Apr 1998 09:54:51 -0700 (PDT)



Transcribed by Michael James 

Josh Blair: by "Blood Chunk"
Written, Produced & Recorded by "Mikey Mayhem" and "Davey Death" (Copyright Protected)
Released through the facilities of "M&D James Productions".
Available at: http://www.rdrop.com/~mjames/bloodchunk/

            FIG 1 VERSE:
|--intro--||--------------------------------------------------------------------|
|---------||--------------------------------------------------------------------|
|---------||--------------------------------------------------------------------|
|-5-5-5-5-||--------------------------------------------------------------------|
|-5-5-5-5-||--------------------------------------------------------------------|
|-3-3-3-3-||-0-1p0-2p0-1p0-3p0-1p0-2p0-1p0-3p0-1p0-2p0-1p0-3p0-1p0-2p0-1p0-3p0--|

FIG 2  half time
|-----|----------|-------------|------------|
|-----|----------|-------------|------------|
|-----|----------|-------------|------------|
|-2---|-----3----|------4------|------3-----|
|-2---|-----3----|------4------|------3-----|
|-0---|-----1----|------2------|------1-----| ...back to FIG 1

CHORUS:
FIG 3
"Josh    Blair      Josh      Blair     Josh   Blair        Josh Blair Josh Blair"
|--------------|------------------|-------------------|-------------------------|
|--------------|------------------|-------------------|-------------------------|
|--------------|------------------|-------------------|-------------------------|
|-2-----5------|---2---------5----|-----2--------5----|------2----5-----2----5--|
|-2-----5------|---2---------5----|-----2--------5----|------2----5-----2----5--|
|-0-----3------|---0---------3----|-----0--------3----|------0----3-----0----3--|


FIG 4
"Josh    Blair      Josh      Blair     Josh   Blair     Josh          BLAIR!!!!"
|--------------|------------------|-------------------|-------------------------|
|--------------|------------------|-------------------|-------------------------|
|--------------|------------------|-------------------|-------------------------|
|-2-----5------|---2---------5----|-----2--------5----|---8--8--8--8---2--------|
|-2-----5------|---2---------5----|-----2--------5----|---8--8--8--8---2--------|
|-0-----3------|---0---------3----|-----0--------3----|---6--6--6--6---0--------|

IN ORDER:
FIG 1  x2
FIG 2
FIG 1  x2
FIG 2
FIG 3  x4
FIG 1  x2
FIG 2
FIG 1  x2
FIG 2
FIG 3  x3
FIG 4


Any questions, corrections, requests or complaints



Important: The song above is NOT stored on the Chordie server. The original song is hosted at www.guitaretab.com. Chordie works as a search engine and provides on-the-fly formatting. Chordie does not index songs against artists/composers will. To remove this song please click here.

This song is displayed as text-only. Transposing and tuning is only available for chordpro-songs.

Login - add to songbook

Rating click stars to rate

Layout
Accuracy

SHARE PAGE  

You need to log in to post comments