""; ?> insertsongandartist - guitar chords, guitar tabs and lyrics - chordie

Youve Made Me So Very Happy

Blood Sweat and Tears





 Absus4
Verse 1:

 Ebm7Dbmaj7
        I'd lost at love before
 Ebm7Dbmaj7
        Got mad and closed the door
 Ebm7Dbmaj7
        But you said, child, "just once more"
 Em7Ebm7
             I chose you for the one
 Em7Ebm7
             Now we're havin' so much fun
 Em7Ebm7
             You treated me so kind
 A7sus4Ab7sus4
                I'm about to lose my mind

Chorus:

 Ab7sus4
        You've made me so very happy
 Dbmaj7Bb7
        I'm so glad you came into my life     

Verse 2:

The others were untrue
But when it came to loving you
I'd spend my whole life with you
Cause you came and took control
You touched my very soul
You always showed me that
Lovin' you is where it's at

 repeat cborus

Post-chorus:

 Ebm7Eb4x
          [  F   Gb   G  Ab Bb Eb]  <- bass             

Thank you baby...

 Dbmaj7Bb7
        Yeah       

Bridge:

 Cb
        I love you so much it seems
You're even in my dreams
 Gb
        I can hear you
 Db
        Baby, I can hear you calling me
 Cb
        I'm so in love with you
All I ever want to do is
 N.C.
        Em7  Ebm7  
Thank you baby
 N.C.
        A7sus4 Ab7sus4  
Thank you baby

Instrumental (LP version only):

 1
        Ebmsus2 (x6807x)
 11
        Fmsus2 (x8029x)
 single edit resumes bere
 :

 borns arr. for guitar

 EbmDbEbm
         v   v   v   v     v   v   v   v
	-----------------|-----------------|
	-----------------|-----------------|
	-8-----8---6-----|-----6-----------|
	---------------8-|-6-8---8---------|
	-----------------|-----------------|
	-----------------|-----------------|


 EmDEm
         v   v   v   v     v   v   v   v
	-----------------|-----------------|
	-----------------|-----------------|
	-9-----9---7-----|-----7-----------|
	---------------9-|-7-9---9---------|
	-----------------|-----------------|
	-----------------|-----------------|


 EbmEmD
         v   v   v   v     v   v   v   v
	-----------------|-----------------|
	-----------------|-----------------|
	-8-----8---6-----|---7-9-7---------|
	---------------8-|-9---------------|
	-----------------|-----------------|
	-----------------|-----------------|


Final chorus:

 Em7
        You've made me so very happy
 A7Dmaj7B7
        I'm so glad you came into my life    
 Em7Gm6
        You've made me so very happy
 F#m7B7
        You've made me so, so very happy, baby
 N.C.
        Em7             A7-5  
I'm so glad you came

 Gadd2Cmaj7Gadd2Cmaj7
               (35743x x3545x sound closest to piano voicings)
Into my life

Coda:

 Gadd2Cmaj7repeat to fade
        Thank you baby, thank you baby...  

-- another ace 60's tab from Andrew Rogers