Chordie logo

Path To Prevail   Bloodsimple



Atrist: Bloodsimple
Song: Path To Prevail
Album: A Cruel World
Tunning: Drop A# (A# F A# D# G C))
Tabber: Majin Gaara

A great song by a great band. If you didnt notice this song
was in the movie HOUSE OF WAX. pretty cool but anyways another
easy song to do have fun!

Tab Legend:
V - Vibrato
. - Palm Mute
^ - Bend(Half Step)


INTRO
(Uses some sort of phaser)
(Near the end of the second time through 
guitar 2 slides down the neck and kicks 
in with the double riff)
C |------------------------------|
G |------------------------------|
D#|------------------------------|
A#|------------------------------|
F |------------------------------|
A#|-4-2-0-2--3-2-0-2-0-2-4-2-0-2-|X2

     
|-------------------------------|
|-------------------------------|
|-------------------------------|
|-------------------------------|
|-4-2-0-2--3-2-0-2-0-2-4-2-0-2--|
|-4-2-0-2--3-2-0-2-0-2-4-2-0-2--| X4

END INTRO/VERSE

|-----------------------------------------|
|-----------------------------------------|
|-----------------------------------------|
|-----------------------------------------|
|-------5-5-5-------5-5-5-------3---------|
|-0-0-0-------0-0-0-------0-0-0-----------| X8
  . . .       . . .       . . .

PRE CHORUS

|------------------------------------|
|------------------------------------|
|------------------------------------|
|------------------------------------|
|-5-5-5-6-6-6-5-5-6-6-6-6-5----------|
|------------------------------------| X4

(After the above riff is played 2x,
guitarist 2 plays this 2x while the above
riff is still being played by guitar 1)
|------------------------------------|
|-------8-8-8-----8-8-8-8-7----------|
|------------------------------------|
|------------------------------------|
|-5-5-5-------5-5--------------------|
|------------------------------------| X2

CHORUS

|-------------------------------|
|-------------------------------|
|-------------------------------|
|-------------------------------|
|-4-2-0-2--3-2-0-2-0-2-4-2-0-2--|
|-4-2-0-2--3-2-0-2-0-2-4-2-0-2--| X8

Play END INTRO/VERSE X4

(Verse 2 only contains drums and vocals)

VERSE 2 END
(guitar 2 does a pickslide all the
way down the neck while guitar 1
plays this chord once)
|------------------------|
|------------------------|
|------------------------|
|-0----------------------|
|-9----------------------|
|-0----------------------|

play PRE CHORUS 

Play CHORUS

BRIDGE
"You cant count the times..."
|-----------------------------|
|-----------------------------|
|-----------------------------|
|-----------------------------|
|-----------------------------|
|-0-0-0--0-0-0--0-0-0--5h6p5--| X11
  . .    . .    . .

(Tremelo pick the 5 and 6)
|----------------------------------|
|----------------------------------|
|----------------------------------|
|----------------------------------|
|----------------------------------|
|-0-0-0--0-0-0--0-0-0--555666555-3-|
  . . .  . . .  . . .  ......... .

"I found out to return..."
|-----------------------------|
|-----------------------------|
|-----------------------------|
|-----------------------------|
|-----------------------------|
|-5h6p5-0-0-0--0-0-0----------| X4
        . . .  . . .


(USe Wah Pedal on the 4 bend)
C |------------------------------|
G |------------------------------|
D#|------------------------------|
A#|------------------------------|
F |------------------------------|
A#|-4-2-0-2--3-2-0-2-0-2-4^------|
    . . . .  . . . . . . 

HALF CHORUS

|-------------------------------|
|-------------------------------|
|-------------------------------|
|-------------------------------|
|-4-2-0-2--3-2-0-2-0-2-4-2-0-2--|
|-4-2-0-2--3-2-0-2-0-2-4-2-0-2--| X4

"Justice and treason..."
|--------------------------------|
|--------------------------------|
|--------------------------------|
|--------------------------------|
|-0-0--\0-0-0-\0-0-0-0-0-0-0-0-0-|
|-0-0--\0-0-0-\0-0-0-0-0-0-0-0-0-|
  . .  . . .   . . . . . . . . .

|-------------------------------|
|-------------------------------|
|-------------------------------|
|-------------------------------|
|-------------------------------|
|-4-2-0-2--3-2-0-2-0-2-4-2-0-2--| X2

OUTRO 

|-----------------------------|
|-----------------------------|
|-----------------------------|
|-----------------------------|
|-5h6h5-0-0-0--0-0-0--0-0-0---|
|-5h6p5-0-0-0--0-0-0--0-0-0---| X4
        . . .  . . .  . . .
"Go!"
(Let the open chord ring and fade out)
|-----------------------------|
|-----------------------------|
|-----------------------------|
|-------0---------------------|
|-5h6h5-0---------------------|
|-5h6p5-0---------------------|





Important: The song above is NOT stored on the Chordie server. The original song is hosted at www.guitaretab.com. Chordie works as a search engine and provides on-the-fly formatting. Chordie does not index songs against artists/composers will. To remove this song please click here.

This song is displayed as text-only. Transposing and tuning is only available for chordpro-songs.

Login - add to songbook

Rating click stars to rate

Layout
Accuracy

SHARE PAGE  



You need to log in to post comments