Chordie logo

Babylon   Blue Cheer



Tabbed by William B

G--------------------------------|
D------5-------------5-----------|
A--------2-3-4-5-------2-3-4-5---|
E--3--------------3--------------|

and so on.

Then for the bluesy breakdown/rhythm just play a normal blues shuffle

Play the chords
e-----------------------------------------------------------|
B-----------------------------------------------------------|
G-----------------------------------------------------------|
D-----------------------5-5-7-5-------------7-7-9-7---------|
A--5-5-7-5---5-5-7-5---3-3-3-3--5-5-7-5----5-5-5-5----------| then back to G and so on
E--3-3-3-3---3-3-3-3-------------3-3-3-3--------------------|

     G                                     C              G                   D

Thats just an idea....


Important: The song above is NOT stored on the Chordie server. The original song is hosted at www.guitaretab.com. Chordie works as a search engine and provides on-the-fly formatting. Chordie does not index songs against artists/composers will. To remove this song please click here.

This song is displayed as text-only. Transposing and tuning is only available for chordpro-songs.

Login - add to songbook

Rating click stars to rate

Layout
Accuracy

SHARE PAGE  



You need to log in to post comments