White Rabbit

Blue Man Group

|-----------------------------------------------|

|-----------------------------------------------|
|-----------------------------------------------|
|-4-4-4-4-4---4-4-4-4-4---4-4-4-4-4---4-4-4-4-4-|
|-4-4-4-4-4---4-4-4-4-4---4-4-4-4-4---4-4-4-4-4-|
|-2-2-2-2-2---2-2-2-2-2---2-2-2-2-2---2-2-2-2-2-|
|-----------------------------------------------|
|-----------------------------------------------|
|-----------------------------------------------|
|-5-5-5-5-5---5-5-5-5-5---5-5-5-5-5---5-5-5-5-5-|
|-5-5-5-5-5---5-5-5-5-5---5-5-5-5-5---5-5-5-5-5-|
|-3-3-3-3-3---3-3-3-3-3---3-3-3-3-3---3-3-3-3-3-|
|------------------------------------|
|------------------------------------|
|-2---------5-------7---------2------|
|-2---------5-------7---------2------|
|-0---------3-------5---------0------|
|------------------------------------|
|-------------------------------------|
|-------------------------------------|
|-8/11--11h12p11-9-11-9-7-9-6-7-6-4---|
|-------------------------------------|
|-------------------------------------|
|-------------------------------------|
|--------------------------------------------------------------------|
|------------------------------------------------11/12\9-13-15-11----|
|-(7)/12-12-12-12-11-11-11-------------------------------------------|
|-------------------------12-12-12-11-11-12------11/12\9-12-14-11----|

 E5A5
 "When the men on the chess board, get up and tell you where to go"                 

 E5A5
"And you've just had some kind of mushroom, and your mind is moving slow"                         

F#5 G5 F#5 (this section is the same as the
and verse progression)
"Go ask alice, I think she'll know"

 F#G
"When logic, and porportion have, fallen softly dead"       

F# (there's a fill here, but it's hard to hear) G
"And the White Knight's talking backwards, and the Red Queen's off with her head"

 A5B5A5B5A5B5A5
"Remember, what the door mouse said, 'Feed your head! Feed your head!"                     

And that's the song. any questions about this song, or any other Blue Man Group songs
i know most of them), email me @:

shredder2010@gmail.com

pce out and rock on!
-MMJZ


A5 B5 E5 F# G
variations - click chord images
Transpose chords:
Tuning:
Cool service:
View: Size:
A  A  A
Rating:
Layout:
  • Currently 4.5/5 Stars.
  • 1
  • 2
  • 3
  • 4
  • 5
 
Accuracy:
  • Currently 3/5 Stars.
  • 1
  • 2
  • 3
  • 4
  • 5
 
click stars to rate
Chordie recommends:
Check out JamPlay.com for online video guitar lessons
Songbook:
Login to add this song to your songbook
Support the artist
Preview/buy this song
MSN Music
Why this non-profit ad?

 
login to add comments/video/corrections