Chordie logo

Take Me Away   Blue Oyster Cult



Artist: Blue Oyster Cult
Song:   "Take Me Away"
Album:  "Revolution By Night" - 1983 CBS Records
Words:  Eric Bloom
Music:  Aldo Nova

TRANSCRIPTION BY Alex Plant (alex [at] alexplant [dot] name)

Tuning: Eb Ab Db Gb Db Eb (Half-step down)
Key:    Eb Minor
NOTES:  I was searching for a tab for this for a long time until I
	  finally had the skill and patience to transcribe it. There
	  is a tab for this song, but it's horribly wrong and was
	  made by an a*shole who said, and I quote, "You know, no 
	  one else would make this tab so you guys really shouldn't
	  complain." Well I've made one now so you can XD. Give 'em
	  hell! This tab is almost without a doubt 100% correct, but
	  suggestions are always welcome. I didn't even attempt to
	  illustrate timing, so listen to the song for it. BTW this
	  is my first tab, but unlike the other dick who "tabbed"
	  this song, I put some effort into it and I'd like to think
	  that I know what I'm doing XD.

INTRO / CHORUS

Eb|---------------------------------------------------------------|
Bb|---------------------------------------------------------------|
Gb|---------------------------------------------------------------|
Db|------4-4-2----------------------------------------------------|
Ab|------------0-2-0-2-0-2-3-2-0----------------------------------|
Eb|-2-2-----------------------------------------------------------|


VERSE

Eb|---------------------------------------------------------------|
Bb|---------------------------------------------------------------|
Gb|---------------------------------------------------------------|
Db|-4-4-4---7-7-7---9-9-9---7-7-7---------------------------------|
Ab|-4-4-4---7-7-7---9-9-9---7-7-7---------------------------------|
Eb|-2-2-----5-5-----7-7-----5-5-----------------------------------|
    xxx     xxx     xxx     xxx 

Important: The song above is NOT stored on the Chordie server. The original song is hosted at www.guitaretab.com. Chordie works as a search engine and provides on-the-fly formatting. Chordie does not index songs against artists/composers will. To remove this song please click here.

This song is displayed as text-only. Transposing and tuning is only available for chordpro-songs.

Login - add to songbook

Rating click stars to rate

Layout
Accuracy

SHARE PAGE  

You need to log in to post comments