Fire Of Unknown Origin

Blue Oyster Cult

 EmD5DC#mCBmA
 022000  xx023x   xx5777   xx4665   xx3555  224432   002220

Intro: Em..........D5...........C#m...........C

At this point, the two giutars seperate for the verses, back together on chorus.
Guitar I
-----------7---7-7---5--7--7--7--7---7--7-7-| (Death come sweep'n through the
-----------8---8-8---5--8--8--8--7---8--8-8-|  hallway...
-----------9---9-9---7--9--9--9--5---9--9-9-|
--------------------------------------------|
--------------------------------------------|
--------------------------------------------|

...like a ladie's dress)

--------------3---3---0----3---3---0--------| Repeat number of times you think
------------------------3-------------3-----| is right
--------------------------------------------|
--------------------------------------------|
---------0----------------------------------|
--------------------------------------------|

While all that is going on, Guitar II plays a melody with a PLAM MUTE.
--------------------------------------------|
--------------------------------------------|
--------------------------------------------|(...Death comes...)
--------3----5----3----2--------------------|
---2--2----2---2----2----2------------------|
--------------------------------------------|

Loose the mute here: (like a ladie's dress...)
--0--0-----|
--2--2-----|
--2--2-----| Repeat number of times you think is right.
--2--2-----|
--0--0-----|
--0--0-----|

A major chord strum, then back to the muted melody.

Chorus:

A fire of unknown origin took my baby away.
 BmC#mDC#m

A fire of unknown origin took my baby away!
 DD5C#mC
Bridge:                                 
C......C#m.....C.......C#m

Order of song: Lyrics: V1: Death comes sweep'n
Intro through the hallway
Verse like a ladie's dress
Chorus Death comes driv'n
Verse Down the highway
Chorus In its sunday best.
Bridge
Solo (TBT, OR TO BE TABBED) Chors: A fire of unknown origin
Verse Took my baby away.
Chorus A fire of unknown origin
Verse, Fade out Took my baby away!

V2: Swept her up and off
my wavelength, swallowed
her up.
Like the ocean in a fire,
So thick and grey(to chorus)

V3: Death comes driv'n
I CAN'T DO NOTHING!
Death goes
There must be someth'n
There must be someth'n!
That remains. (something...
Something...)(To chorus)
That's all for now, kids-Stokely


A Bm C C#m D D5 Em
variations - click chord images
Transpose chords:
Tuning:
Cool service:
View: Size:
A  A  A
Rating:
Layout:
  • Currently 4/5 Stars.
  • 1
  • 2
  • 3
  • 4
  • 5
 
Accuracy:
  • Currently 4/5 Stars.
  • 1
  • 2
  • 3
  • 4
  • 5
 
click stars to rate
Chordie recommends:
Learn to play songs at Jamplay.com with video guitar lessons
Songbook:
Login to add this song to your songbook
Support the artist
Preview/buy this song
MSN Music
Why this non-profit ad?

 
login to add comments/video/corrections