Chordie logo

No Time Like  Blues Project


















        bass [2X alone; repeat tbrougb first two lines of verse]:

v v v v
	-----------------|
	-1---1---1---1---|
	---11--11--11--1-|
	-----------------|


        guitar [1 beat of eacb measure except as indicated]:

        xx[1111]3111      xx[11]1099     xx6544   x6887x

Ebm E/Eb Ebm 1: Ab/Eb
        xx[1111]3111      xx[1111]4322     xx[1111]3111      xx[1]0898

2: A B A B B C# B C#
                                           [to coda]                 

Verse 1:

        [Eb]You have made the [Db/Eb]moment [Ab/Eb]      into happy [Eb]hours
        [Eb]And in just that [Db/Eb]moment   you turn the[Ab/Eb] rain clouds into[Abm/Eb] flowers

        And I can [Bbm]see that [Ab]you're afr[Eb]aid [Ab/Eb]
        You think it's [Bbm]some kind of mist[Ab]ake that you m[Eb]ade [Ab/Eb]
        Well, [Ebm]let me set y[Db]our heart at e[Ab]ase  [Abm/Cb]
        'Cause I'm [Ebm]down on my b[Db]ended k[Ab]nees, [Abm/Cb]sayin' to you

Chorus:

organ arr. for guitar:

Gb Cb/Gb Gb7(no 3) Cb/Gb
v v v v v v v v
	-----------------|-----------------|
	-2---2---4---4---|-5---5---4-5-4---|
	-3---3---4---4---|-6---6---4-6-4---|
	-4---4---4---4---|-4---4---4-4-4---|
	-----------------|-----------------|
	-----------------|-----------------|


Gb Cb/Gb Gb7(no 3) Cb/Gb
There's no time like the right time
Gb Cb/Gb Gb7(no 3) Cb/Gb
And baby, the right time is now (said that there's
Gb Cb/Gb Gb7(no 3) Cb/Gb
no time) Like the right time, if you don't
Gb Cb/Gb Gb7(no 3) Cb/Gb
Think that you can love me
        You can [Gb]bet I'm gonna [Cb/Gb]show you [Ab]how  [Db]
        You [Ebm]know I'm gonna s[Db]how you[Ab/C] how  [Abm/Cb]       (hey!)

Break:

        ondioline solo [8 bars, first two alone]


        bass [bars 3 and 4]:

v v v v v v v v
	-----------------|-----------------|
	-1-------1-------|-1---1---1---1---|
	-----------------|-----------------|
	-----------------|-----------------|


        [bars 5-8; continue into first two lines of verse]:

v v v v
	-----------------|
	-1---1---1---1---|
	---1---1---1---1-|
	-----------------|


Verse 2:

Every single second that you just let go
Multiply by a million, it just makes me want you that much more

You got me sittin' here countin' time
'Cause sooner or later you'll find
That a fifty-dollar bill
If you need someone to love you
Well you got someone you will, and

        [repeat cborus] 

        [repeat intro] 

Coda (chords as per chorus):

No time like the right time
        Talkin' 'bout the right time [fade]


-- another ace 60's tab from Andrew Rogers