Time Will Tell Acoustic

Bob Marley

-------------------------------------------------------------------------------

-------------------------------------------------------------------------------
e|--------------------------------------------------------------------------|
B|--1-1-1-1---------1-1-1-1---------1-3------------3------------------------|
G|--0-0-0-2---------2-0-2-0---------0-0------------0------------------------|
D|--0-2-0-0---------0-2-0-0---------2-2------------2------------------------|
A|--3-3-3-3---------3-3-3-3---------3-3------------3------------------------|
E|--------------------------------------------------------------------------|
e|--------------------------------------------------------------------------|
B|--1-3-0-1---------0-1-1-0---------1-1-1-----------------------------------|
G|--0-0-0-2---------0-0-2-0---------0-0-2-----------------------------------|
D|--2-2-0-0---------0-2-0-0---------2-2-0-----------------------------------|
A|--3-3-3-3---------3-3-3-3---------3-3-3-----------------------------------|
E|--------------------------------------------------------------------------|

 CGCG
 JAH would never give the power to a baldhead
Run come crucify the dread
 CGCG
 Time alone, oh! time will tell
Think you're in heaven but you're living in hell
Think you're in heaven but you're living in hell
Think you're in heaven but you're living in hell
Time alone, oh! time will tell
Think you're in heaven but you're living in hell
Back them up, oh not the brothers
But the ones, who set them up
Time alone, oh! time will tell
Think you're in heaven but you're living in hell
Think you're in heaven but you're living in hell
Think you're in heaven but you're living in hell
Time alone, oh! time will tell
Think you're in heaven but you're living in hell
 EmG
 Oh children weep no more
Oh my sycamore tree, saw the freedom tree
Saw you settle the score Oh children weep no more
Weep no more, children weep no more
 CGCG
 JAH would never give the power to a baldhead
Run come crucify the dread
 CGCG
 Time alone, oh! time will tell
Think you're in heaven but you're living in hell
Think you're in heaven but you're living in hell
Think you're in heaven but you're living in hell
Time alone, oh! time will tell
Think you're in heaven but you're living in hell


C Em G
variations - click chord images
Transpose chords:
Tuning:
Cool service:
View: Size:
A  A  A
Rating:
Layout:
  • Currently 3.2/5 Stars.
  • 1
  • 2
  • 3
  • 4
  • 5
 
Accuracy:
  • Currently 3/5 Stars.
  • 1
  • 2
  • 3
  • 4
  • 5
 
click stars to rate
Chordie recommends:
Learn how to play guitar at JamPlay.com
Songbook:
Login to add this song to your songbook
Support the artist
Preview/buy this song
MSN Music
Why this non-profit ad?

 
login to add comments/video/corrections