Chordie logo

Get Up Stand Up   Bob Marley











Get Up Stand Up
---------------

by Bob Marley and the Wailers

transcribed by kevin gardner
               code@wam.umd.edu

intro
 -----------------------------------|
 -----------------------------------|
 -----------------------------------|
 -----------------------------------|
 -----------------------------------|
 -x-6-6-x-6-6---x-6-8---x-6-6-x-6-6-|

this is played twice


tthe other guitar plays Cm for the rest of the song

Cm looks like this...
                     -8-
                     -8-
                     -8-
                     -6-
                     -6-
                     -8-

this is played twice

all notes played wityh right hand
palm mute

chorus riff
-----|-------------|-----------|-------------|-------------|
-----|-------------|-----------|-------------|-------------|
-----|-------------|-----------|-------------|-------------|
-----|-5-----------|---5-------|-5-----------|-------5---3-|
-----|---6-5-6-5---|-6---------|---6-5-6-5---|-----6---6---|
-6-8-|-----------8-|-----3-6-8-|-----------8-|-8-8---------|


verse riff
-----------|------------|
-----------|------------|
---------7-|------------|
-------5---|-8-----5----|
---6-8-----|---6-8------|


Important: The song above is NOT stored on the Chordie server. The original song is hosted at www.guitaretab.com. Chordie works as a search engine and provides on-the-fly formatting. Chordie does not index songs against artists/composers will. To remove this song please click here.

This song is displayed as text-only. Transposing and tuning is only available for chordpro-songs.

Login - add to songbook

Rating click stars to rate

Layout
Accuracy

SHARE PAGE  

You need to log in to post comments