Waiting In Vain

Bob Marley

 Abmaj7Dbmaj7
 I don't wanna wait in vain      for your love
I don't wanna wait in vain for your love

*VERSE 1:

 Abmaj7Dbmaj7
 From the very first time I placed my eyes on you girl,
My heart said follow through
But I know now that I'm way down on your line
But the waiting feel is fine.

So don't treat me like a puppet on a string
Cause I know how to do my thing.
Don't talk to me, as if you think I'm dumb
I want to know when you're gonna come. See,

*CHORUS:
 Abmaj7Dbmaj7
 I don't want to wait in vain for your love
I don't want to wait in vain for your love
I don't want to wait in vain for your love, cause if

 DbEbCm7Bbm7
 summer is here,  I'm still waiting there. (G string riff: (6~~8), D: 8)
Winter is here, and I'm still waiting there...

*SOLO: Abmaj7 Dbmaj7 x4
 Abmaj7Dbmaj7
e:----------------------------------------|-----------------------------------------|
B:----------------------------------9-11~~|~~~~~~~~~~~~~~~~~~~----------------------|
G:------------------------8--8s10---------|-----------------------------------------|
D:------------6--8s10---------------------|-----------------------------------------|
A:------6s8-------------------------------|-----------------------------------------|
E:----------------------------------------|-----------------------------------------|


 Abmaj7Dbmaj7
e:-------------11-------------------------|-----------------------------------------|
B:--11-13--14-------14p13--11-------------|-----------------------------------------|
G:-----------------------------13h15---13-|-15b-15-p13-15--13---13~~~~~-------------|
D:----------------------------------------|-----------------------------------------|
A:----------------------------------------|-----------------------------------------|
E:----------------------------------------|-----------------------------------------|


 Abmaj7Dbmaj7
e:--13----------13------------------------|-----------------------------------------|
B:------16b~~~~~----16-(13)-----13--16-13-|-----------------------------------------|
G:---------------------------16-----------|-15b-15---15---13-15--13~~~~~------------|
D:----------------------------------------|-----------------------------------------|
A:----------------------------------------|-----------------------------------------|
E:----------------------------------------|-----------------------------------------|

 Abmaj7
e:---------------------------------------------------------13----13-|
B:---------------------------------------13----13-16-13-16----16----|
G:---------------------13----13-15-13-15----15----------------------|
D:---13----13-15-13-15----15----------------------------------------|
A:15----15----------------------------------------------------------|
E:------------------------------------------------------------------|


 Dmaj7
e:-16b--16--16----13---13--13--13--13--13-|
B:----------------------------------------|
G:----------------------------------------|
D:----------------------------------------|
A:----------------------------------------|
E:----------------------------------------|

Like I said

*VERSE 2:
 Abmaj7Dbmaj7
 It's been three years since I'm knocking on your door,
and I still can knock some more.
Ooh, girl, Ooh, girl, is it feasible,
I wanna know now, for I to knock some more?

Ya see, in life I know there's lots of grief,
but your love is my relief.
Tears in my eyes burn, tears in my eyes burn
while I'm waiting, while I'm waiting for my turn. U'See...

*CHORUS:
 Abmaj7Dbmaj7
 I don't want to wait in vain for your love
I don't want to wait in vain for your love
I don't want to wait in vain for your love
I don't want to wait in vain for your love
I don't want to wait in vain for your love, whoa...
I don't wanna, (x4) I don't wanna wait in vain, No,
I don't wanna, (x4) I don't wanna wait in vain, No, I,
No, I
no, no, no, I, oh, I.
It's yourLove that I'm waiting on,
it's my love that you're running from.
It's you Love that I'm waiting on,
it's my love that you're running from, Oh.

FADE OUT/


Abmaj7 Bbm7 Cm7 Db Dbmaj7 Dmaj7 Eb
variations - click chord images
Transpose chords:
Tuning:
Cool service:
View: Size:
A  A  A
Rating:
Layout:
  • Currently 2.9/5 Stars.
  • 1
  • 2
  • 3
  • 4
  • 5
 
Accuracy:
  • Currently 2.7/5 Stars.
  • 1
  • 2
  • 3
  • 4
  • 5
 
click stars to rate
Chordie recommends:
Check out JamPlay.com for online video guitar lessons
Songbook:
Login to add this song to your songbook
Support the artist
Preview/buy this song
MSN Music
Why this non-profit ad?

 
login to add comments/video/corrections