Chordie logo


Simple Song Of Freedom  Bobby Darin

e-----------------------------------------------------0----------|


b-0-1_0-1--1_3-3-3--3_1-1-1---------0----------------------0---0-|


G---------------------------------0------0---0----0----------0---|

D-0-2_0-2--2_4-4-4--4_2-2-2-----2----------2--------2------------|
A----------------------------------------------------------------|
E-----------------------------0--------0--------0--------0-------|
e----0----0----2----2-2----3-----3----3-------3----|
b----1----1----3----3-3----0-----0----0-------0----|
G----0----0----2------2----0-----0----0-------0----|
D------------0-------------------------------------|
A--3-------------------------2_3---------2_3-------|
E-------3---------2------3----------3------------3-|
[G]Come and sing a [D]simple song of f[G]reedom
[C]Sing it like you've never sung [G]before
[D]Let it fill the air, tell the p[Em]eople everywhere
[C]We, the people h[D]ere, don't want a [G]war
[G]Hey there Mister Bl[D]ack Man can you hear [G]me
[C]I don't want your diamond or your [G]game
[D]I just want to be some[Em]one known to you as me
And I[C] will bet my li[D]fe you want the s[G]ame (chorus)
[G]Seven hundred m[D]illion are you li[G]stening
[C]Most of what you read, most of what you read is[G] made of lies
Sp[D]eaking one to one ain[Em]'t it everybody's sun
To wa[C]ke to in the mo[D]rning when we ris[G]e (chorus)
[G]No doubt some f[D]olks enjoy doing ba[G]ttle
Like pres[C]idents, prime ministers and k[G]ings
[D]So let us build them shelves so t[Em]hey might fight among themselves
And l[C]eave us be tho[D]se who want to si[G]ng (chorus)
[G]Come and sing a si[D]mple song of f[G]reedom
[C]Sing it like you've never sung [G]before
[D]Speaking one to one ain't it ev[Em]erybody's everybody's sun
To wa[C]ke to in the mo[D]rning when we ri[G]se, when we arise
[D]Speaking one to one ain't it ev[Em]erybody's sun
To wa[C]ke to in the mo[D]rning when we ari[G]se

Important: The song above is NOT stored on the Chordie server. The original song is hosted at www.guitaretab.com. Chordie works as a search engine and provides on-the-fly formatting. Chordie does not index songs against artists/composers will. To remove this song please click here.

Text color:
Chord color:
Chord grids: 
Font size:    
Page size: 

C D Em G
variations - click chord images

Login - add to songbook

Transpose chords

Tuning

Rating click stars to rate

Layout
Accuracy

SHARE PAGE  




You need to log in to post comments

mooseguy (report)

Here's the missing verse:

Brother Yevtoshenko are you busy?
If not would you drop a friend a line?
Tell me if the man, who is plowing up your land
Has got the war machine upon his mind

Sinosceptic (report)

There's a verse missing..?