Chordie logo

Bolsas De Te  Bohemia Suburbana

|-----------------|


|-----------------|


|-----------------|


|---4-----4-------|


|-2---2-2---2-2---|


|-----------------|



|--------------------|


|--------------------|


|---1-----1h2p1------|


|-3---3-3------3-3/4-|


|--------------------|


|--------------------|


[B5]Escupo al suelo y [C#5]miro al cielo
[B5]y de esta forma [C#5]me desvelo
[F#5]Me desvel[Em]o       [A5]Me de[B5]svelo
[F#5]ooooaaa o[Em]oaaaaa o[A5]aaaaa[B5] oaaoaoaoa

[Dm5]Nunca [A5]talvez nos dijo [Em]el viento[Cm5]
[Dm5]El secreto [A5]de venir y [Em]alejarse [Cm5]sin sufrir
[Dm5]Nunca [A5]aprendimos de un[Em] salm?n a[Cm5] luchar con
[Dm5]pasion por los [A5]caudales [Em]de los ideales[Cm5]
[Dm5]De los [A5]ideales [Em]                [Cm5]

[B5]No me mires asi [C#m]no fui yo quien [B5]apag? las luces [C#5]
[B5]Escupo al suelo [C#5]y miro al cielo [B5]y de ?sta forma [C#5]me desvelo
[F#5]Me de[Em]svelo [A5]me de[B5]svelo
[F#5]oaoao[Em]aoa oa[A5]oaoao[B5]o
[F#5]uuuuu[Em]hhhh a[A5]aaahh[B5] eyeeyeyeye

Solo
|12-12-12-12h14-12-------------------|
|------------------14-12-------------|
|------------------------14-11-------|
|------------------------------11-14-|
|------------------------------------|
|------------------------------------|
-----------------------|
-----------------10-12-|
---------9----11-------|
-9-10-11---11----------|
-----------------------|
-----------------------|
-------------------------------------18-19-|

-15-18-18-15-18-18-15-18-18-15-18-15-------|
-------------------------------------------|
-------------------------------------------|
-------------------------------------------|
-------------------------------------------|
-18-16-14-16-14-------------|
----------------15-13-------|
----------------------15-12-|
----------------------------|
----------------------------|
----------------------------|
-12-14-------------------------------|
-------14-11-14-13-11-13-11-13/14-14-|
-------------------------------------|
-------------------------------------|
-------------------------------------|
-------------------------------------|
---------------------------------|
------12-13-12----------12-13-12-|
-11-14---------14-11-14----------|
---------------------------------|
---------------------------------|
---------------------------------|
----------------------------------|
----------12-13-14-13-12-10-12-10-|
-14-11-14-------------------------|
----------------------------------|
----------------------------------|
----------------------------------|
--------------------------------|
--------------------------------|
-7-9-11-12-14-12-11-12-11-12/14-|
--------------------------------|
--------------------------------|
--------------------------------|
-------------------------------------|
-------------------------------------|
-14-16-17-16-14-16-14-12-------------|
-------------------------14-12-14-12-|
-------------------------------------|
-------------------------------------|
---------------------------|
---------------------------|
---------------------12-11-|
-14-12-14/19-12-14-12------|
---------------------------|
---------------------------|
---------------------------------|
---------------------------------|
----------12-11------------------|
-12-14-12------14-12-14-12-14-12-|
---------------------------------|
---------------------------------|
-------------15-15-15-14-14-14-|
-12-12-12/13-------------------|
-------------------------------|
-------------------------------|
-------------------------------|
-------------------------------|
-12-12-12----------------------------|
----------15-15-15-13-13-13-12-12-12-|
-------------------------------------|
-------------------------------------|
-------------------------------------|
-------------------------------------|
-------12-15-12-------12-15-12-------------|
-13-12----------13-12----------13-12-10-12-|
-------------------------------------------|
-------------------------------------------|
-------------------------------------------|
-------------------------------------------|


TRANSCRIBED BY VIUDA NEGRA
VIUDANEGRA18@HOTMAIL.COM

Important: The song above is NOT stored on the Chordie server. The original song is hosted at www.guitaretab.com. Chordie works as a search engine and provides on-the-fly formatting. Chordie does not index songs against artists/composers will. To remove this song please click here.

A5 B5 C#5 C#m Em F#5
variations - click chord images

Login - add to songbook

Transpose chords

Tuning

Rating click stars to rate

Layout
Accuracy

SHARE PAGE  



You need to log in to post comments