Guitar Tabs, Chords and Lyrics


High School   Bombshell



                           "High School"
                        By: Chris Stephens

Intro
(Guitar 1)
----------------------------------------
----------------------------------------
-4--------------------------------------
-2-(8x's)-2--------6--------2-----------
----------0-(8x's)-4-(8x's)-0-(8x's)----
----------------------------------------

(Guitar 2)

-77----------------------44---------55----------------
----55-44-55----55-44-55---55-44-55----55--4h5-4h5-7--
-------------44---------------------------------------
------------------------------------------------------
------------------------------------------------------
------------------------------------------------------

Song

--------------------------------------
--------------------------------------
-4------------------------------------
-2-(8x's)-2--------6--------2---------
-*--------0-(8x's)-4-(8x's)-0-(8x's)--
----------*--------*--------*---------

Chorus

-------------------------------------
-------------------------------------
-4-----------------------------------
-2-(8x's)-2-----------------2--------
----------0-(8x's)-4--------0-(8x's)-


Important: The song above is NOT stored on the Chordie server. The original song is hosted at www.guitaretab.com. Chordie works as a search engine and provides on-the-fly formatting. Chordie does not index songs against artists'/composers' will. To remove this song please click here.

This song is displayed as text-only. Transposing and tuning is only available for chordpro-songs.

Login - add to songbook

Rating click stars to rate

Layout
Accuracy

SHARE PAGE  




You need to log in to post comments