Make A Memory

Bon Jovi

 C
 Hello again, it's you and me
 G
 Kinda always like it used to be
 Am
 Sippin' wine, killing time
 F
 Trying to solve life's mysteries

 C
 How's your life, it's been awhile?
 G
 God it's good to see you smile
 Am
 I see you reaching for your keys
 F
 Looking for a reason not to leave

(Bridge)
 CG
 If you don't know if you should stay
 AmF
If you don't say what's on your mind
 C
Baby just breathe
 EmF
there's nowhere else tonight we should be

 C
you wanna make a memory?

(Verse)
 C
 I dug up this old photograph
 G
 look at all that hair we had
 Am
it's bitter sweet to hear you laugh
 F
your phone is ringin i don't wanna ask

(Bridge)
 CG
 If you don't know I'll understand
 AmF
if you stay hey i've gotta plan

(Chorus)
 CG
You wanna make a memory?   
 AmF
You wanna steal a peice of time? 
 CG
You can sing the melody to me 
 AmF
And I can write a couple lines 

 CGAmF
You wanna make a memory         

(Solo-cum-fill)

---------------------------------------------------|
---------------------------------------------------|
------------------------5---7---9vvv--9--9--7--5vv-|
----------------------5----------------------------|
--3--3--5--7----5--7-------------------------------|
---------------------------------------------------|


(Bridge)
 CG
If you don't know if you should stay
 AmF
If you don't say what's on your mind
 C
Baby just breathe
 EmF
there's nowhere else tonight we should be, we should be.

(Chorus)
 CG
You wanna make a memory?   
 AmF
You wanna steal a peice of time? 
 CG
You can sing the melody to me 
 AmF
And I can write a couple lines 

 CGAmF
You wanna make a memory         

(Backing Riff thing) - all through the end part below

--------------------------------------|
--------------------------------------|
--------------------------------------|
--------------------------------------|
--3--5--7--5vv----5--3--2--3vv--------|
------------------------------3--5vv--|


 CGAmF
You wanna make a memory      

 CGAmF
You wanna make a memory      


Am C Em F G
variations - click chord images
Transpose chords:
Tuning:
Cool service:
View: Size:
A  A  A
Rating:
Layout:
  • Currently 4/5 Stars.
  • 1
  • 2
  • 3
  • 4
  • 5
 
Accuracy:
  • Currently 2/5 Stars.
  • 1
  • 2
  • 3
  • 4
  • 5
 
click stars to rate
Chordie recommends:
Learn to play songs at Jamplay.com with video guitar lessons
Songbook:
Login to add this song to your songbook
Support the artist
Preview/buy this song
MSN Music
Why this non-profit ad?

 
login to add comments/video/corrections