Immortal Life

Bonded By Blood

[] = Harmonic

Intro Riffage
eb|-------------------------------------------------------------------|
Bb|-------------------------------------------------------------------|
Gb|-------------------------------------------------------------------|
Db|---------------------------------------------------8-7-5-----------|
Ab|-------7-----7-----8-----5-----5h7-----7-----7-----------8-7-5h7---|
Eb|---0-0---0-0---0-0---0-0---0-0-----0-0---0-0---0-0-----------------|

. . . . . . . . . . . . . . . .

1st, 2nd Verse Riffage
eb|-------------------------------------------------------------------------W----|
Bb|------------------------------------------------------------------------S-E---|
Gb|-----------------------------------------------------------------------D--E---|
Db|--------------------------------------8-7-5---------------------------A-----P-|
Ab|---2---------------3-3-3-2------------------8-7-5h7-2----------------M-------S|
Eb|---0--0-0-0-0-0-0--1-1-1-0--0-0-0-0-----------------0---0-0-0-0-0-0-----------|

. . . . . . . . . . . . . . . .

Pre-Chorus(x1) Chorus 1st, 3rd ending
eb|-----------|-------------------------------------|----------------------|
Bb|-----------|-------------------------------------|----------------------|
Gb|-----------|-------------------------------------|----------------------|
Db|-----------|-------------------------------------|----------------------|
Ab|---8-7-5-2-|--5----------5-5---------5--8-7-5-2--|----------------------|
Eb|---6-5-3-0-|--3--333-3-3-3-3-333-3-3-3--6-5-3-0--|--[3][3][3][3][3][3]--|

... . . ... . .

2nd ending
eb|----------------------|------------|
Bb|----------------------|------------|
Gb|----------------------|------------|
Db|----------------------|------------|
Ab|--[5][5][5][5][5][5]--|--8-7-5-2---|
Eb|----------------------|--6-5-3-0---|


After Solo

eb|------------------------------------------------------------|
Bb|------------------------------------------------------------|
Gb|------------------------------------------------------------|
Db|------------------------------------------------------------|
Ab|---2----2-5-2----2----2-\8-7--2----2-5-2---3-3-3-33-33------|
Eb|---0--0-0-3-0--0-0--0-0-\6-5--0--0-0-3-0---1-1-1-11-11--3---|

. . . . . . . .. .. ph
















variations - click chord images
Transpose chords:
Tuning:
Cool service:
View: Size:
A  A  A
Rating:
Layout:
  • Currently 0/5 Stars.
  • 1
  • 2
  • 3
  • 4
  • 5
 
Accuracy:
  • Currently 3/5 Stars.
  • 1
  • 2
  • 3
  • 4
  • 5
 
click stars to rate
Chordie recommends:
Learn how to play guitar at JamPlay.com
Songbook:
Login to add this song to your songbook
Support the artist
Preview/buy this song
MSN Music
Why this non-profit ad?

 
login to add comments/video/corrections