Medicine

Boo Hewerdine

e -||----------------------------------------------------------|

B -||--12----12--12--12---12-------7------7--7---7---7---------|
G -||.-13----13--13--13---13-------8------8--8---8---8---------|
D -||.-14----14--14--14---14-------9------9--9---9---9---------|
A -||--14----14--14--14---14-------9------9--9---9---9---------|
E -||--12----12--12--12---12----0--7------7--7---7---7----0----|
e ----------------------------------------------------------|-|
B ---5------5---5--5----5--------7------7--7---7----7-------|-|
G ---6------6---6--6----6--------8------8--8---8----8------.|-|
D ---7------7---7--7----7--------9------9--9---9----9------.|-|
A ---7------7---7--7----7--------9------9--9---9----9-------|-|
E ---5------5---5--5----5----5-/-7------7--7---7----7----0--|-|

 F#m
 throw your hats at the moon in georges square,
F#m (sl.up) A A G#m F#m
was that ever us

 F#m
 climbing walls giving names to the stars
 AB
 was that ever us  

e E e B
and if you come home with me,
e A a B
I'll slip a little something in your tea
A B E(0)
everybody needs some kind of medicine sometimes

(bridge)

e E e B
you've been hanging out in casualty
e A a B
for shooting too much mercury
A B E(0) B A
everybody needs some kind of medicine sometimes

e E e B
oh and if you come home with me,
e A a B
I'll score for you if you score for me
A B E(0)
everybody needs some kind of medicine sometimes

chords :

E A D G B e
 121414131212-E
  7  9  9  8  7  7  -  B
 577655-A
 0  2  2  1  0  0  -  E(0)
 466444-G#m
(sl.up) is slide up from F#m to A

This arrangement is quite different from Eddi Reader's album version, but
it sounds roughly like how a guitar arrangement of this song should do.
Improvements welcome.

Nic
Nic.Boulton@cw.mercury.co.uk


A B E F#m G#m
variations - click chord images
Transpose chords:
Tuning:
Cool service:
View: Size:
A  A  A
Rating:
Layout:
  • Currently 2.6/5 Stars.
  • 1
  • 2
  • 3
  • 4
  • 5
 
Accuracy:
  • Currently 3/5 Stars.
  • 1
  • 2
  • 3
  • 4
  • 5
 
click stars to rate
Chordie recommends:
Learn to play songs at Jamplay.com with video guitar lessons
Songbook:
Login to add this song to your songbook
Support the artist
Preview/buy this song
MSN Music
Why this non-profit ad?

 
login to add comments/video/corrections