Chordie logo

I Dig You   Bosshog









Date: Tue, 25 Jun 1996 22:36:45 -0500



" I Dig You " by Boss Hog
Transcribed by Josh Keafer
June, 6 1996

 intro (repeat 3x)

E:----------------------------------------|
A:----------------------------------------|
G:----------------------------------------|
D:----------------------------------------|
B:---------------------------------5------|
E:--5--0--3--0--3--5--0--5--7----5--------|

after every verse play this >

E:-----------------|
A:-----------------|
G:-----------------|
D:-----------------|
B:---------5-------|
E:--5--7-----5-----|

repeat intro after this 7x , then play >

E:-----------------------------------------|
A:-----------------------------------------|
G:-----------------------------------------|
D:-----------------------------------------|
B:---------------------------------5-------|
E:--5--0--3--0--3--5--0--5--7-----7--------|

You can figure anything else out it's not hard
--josh--


and more
--
Kim and Carla Keafer


Important: The song above is NOT stored on the Chordie server. The original song is hosted at www.guitaretab.com. Chordie works as a search engine and provides on-the-fly formatting. Chordie does not index songs against artists/composers will. To remove this song please click here.

This song is displayed as text-only. Transposing and tuning is only available for chordpro-songs.

Login - add to songbook

Rating click stars to rate

Layout
Accuracy

SHARE PAGE  

You need to log in to post comments