Guitar Tabs, Chords and Lyrics


New Day   Bouncing Souls



Artist : The Bouncing Souls	
Song : New Day
Album : Anchors Aweigh
Tuning : Standard
Tabbed By : Aaron Kunde

Intro
|---------------------|x4
|----------------5----|
|------4-3--4-3---4-3-|
|-2-44----4----4------|
|-2-44----------------|
|-0-22----------------|

Verse
|---------------------|x4
|---------------------|
|-----------4444------|
|-4444-2222-4444-2222-|
|-4444-2222-2222-2222-|
|-2222-0000------0000-|

Fill
|---------------------|x2
|----------------5----|
|------4-3--4-3---4-3-|
|-2-44----4----4------|
|-2-44----------------|
|-0-22----------------|

Verse2
|---------------------|x4
|---------------------|
|-----------4444------|
|-4444-2222-4444-2222-|
|-4444-2222-2222-2222-|
|-2222-0000------0000-|

Fill2
|---------------------|x2
|----------------5----|
|------4-3--4-3---4-3-|
|-2-44----4----4------|
|-2-44----------------|
|-0-22----------------|

|----------------------------|x4
|----------------------------|
|-1111-11989-9-9864-44444444-|
|--x-x--xxxx-x-xxxx-xxxxxxxx-|
|--9-9--9767-7-7642-22222222-|
|----------------------------|

Chorus
|------------------------------------|x8 |-0-|
|------------------------------------|   |-0-|
|----------44444444------------------|   |-0-|
|-22222222-44444444-4444444444444444-|   |-0-|
|-22222222-22222222-4444444444444444-|   |-0-|
|-00000000----------2222222222222222-|   |-0-|

Breakdown
|-------------------------------------------00000000000-|
|-------------------------------------------00000000000-|
|-------------------------------------------00000000000-|
|-2-44--------2-44--------2-44--------2-44--00000000000-|
|-2-44--------2-44--------2-44--------2-44--------------|
|-0-22--------0-22--------0-22--------0-22--------------|

Fill
|----------------------------|x4
|----------------------------|
|-1111-11989-9-9864-44444444-|
|--x-x--xxxx-x-xxxx-xxxxxxxx-|
|--9-9--9767-7-7642-22222222-|

Chorus
|------------------------------------|x7|--------------------------|
|------------------------------------|  |------------------------5-|
|----------44444444------------------|  |-------44------4-3-4-3----|
|-22222222-44444444-4444444444444444-|  |-22----44----4----4---4---|
|-22222222-22222222-4444444444444444-|  |-22----22----4------------|


Important: The song above is NOT stored on the Chordie server. The original song is hosted at www.guitaretab.com. Chordie works as a search engine and provides on-the-fly formatting. Chordie does not index songs against artists'/composers' will. To remove this song please click here.

This song is displayed as text-only. Transposing and tuning is only available for chordpro-songs.

Login - add to songbook

Rating click stars to rate

Layout
Accuracy

SHARE PAGE  




You need to log in to post comments