Guitar Tabs, Chords and Lyrics


Corndog   Bowling For Soup



-----------------------------------------------------------------
Corndog - Bowling For Soup
-----------------------------------------------------------------
Tabbed by: Bair
Email: bair_morritt@hotmail.com
Tuning: Standard

**Another BFS song no one has tabbed yet. This ones 100% perfect.**

Intro:           G1                      G2
e|----------------------------------|----------|
B|----------------------------------|----------|
G|--77777-9--77777-9----------------|-0-2-4-0--|
D|--77777-9--77777-9--55555555-(X4)-|----------|
A|--55555-7--55555-7--55555555------|----------|
E|--------------------33333333------|----------|

Verse:
e|-----------------------------------------------|
B|-----------------------------------------------|
G|------------77777777--99999999--55555--7-77-7--|
D|--55555555--77777777--99999999--55555--7-77-7--|
A|--55555555--55555555--77777777--33333--5-55-5--|
E|--33333333-------------------------------------|
"I was all alone on a saturday night..."

e|----------------------------------------------|
B|----------------------------------------------|
G|------------77777777--99999999--55555--77777--|
D|--55555555--77777777--99999999--55555--77777--|
A|--55555555--55555555--77777777--33333--55555--|
E|--33333333------------------------------------|
"I stayed up all night crying and was up all day"

Post-Verse:     G1                     G2
e|--------------------------|-----------------------|
B|--------------------------|-----------------------|
G|------------77777-9-(X2)--|------------4444-0000--|
D|--55555555--77777-9-------|--7777-9999------------|
A|--55555555--55555-7-------|-----------------------|
E|--33333333----------------|-----------------------|

-Then Verse

Interlude:
Part1
e|------------------------------------------|
B|------------------------------------------|
G|------------------5555--------7777--------|
D|--55555555--7777--5555--5555--7777--------|
A|--55555555--7777--3333--5555--5555--------|
E|--33333333--5555--------3333--------------|
"I have no idea what I did."

Part2
e|--------------------------------------------------|
B|--------------------------------------------------|
G|--------5555--------7777--------5555--------7777--|
D|--2222--5555--5555--7777--2222--5555--5555--7777--|
A|--2222--3333--5555--5555--2222--3333--5555--5555--|
E|--0000--------3333--------0000--------3333--------|
"She just told me have someone check your head."

Part3
e|-----------------------------------------------|
B|-----------------------------------------------|
G|---------------------------55555555--77777777--| X2
D|--5-555555--2-222222-(X2)--55555555--77777777--|
A|--5-555555--2-222222-------33333333--55555555--|
E|--3-333333--0-000000---------------------------|
"Trying to find, trying to find...."

-Then Intro
-Then Verse
-Then Interlude (X2)


Important: The song above is NOT stored on the Chordie server. The original song is hosted at www.guitaretab.com. Chordie works as a search engine and provides on-the-fly formatting. Chordie does not index songs against artists'/composers' will. To remove this song please click here.

This song is displayed as text-only. Transposing and tuning is only available for chordpro-songs.

Login - add to songbook

Rating click stars to rate

Layout
Accuracy

SHARE PAGE  




You need to log in to post comments