Guitar Tabs, Chords and Lyrics


Sometimes   Bowling For Soup



Here I am again, With my 3rd Bowling for Soup tab, hope its right
cant find any tabs off the new album so im giving them all a shot, Enjoy!

Artist: Bowling For Soup
Song name: Sometimes
Album: Bowling For Soup Goes To the Movies

Intro (Guitar 1)

e|---------------------|     |---------------------------------|
B|----7----8-----7-----|     |------7--------10---8---7---5----|
G|-7----7-----7-----7--| x3  |--7-------7----------------------|
D|---------------------|     |---------------------------------|
A|---------------------|     |---------------------------------|
E|---------------------|     |---------------------------------|

Intro (guitar 2)

e|-----------------------------------------------------------------|
B|-----------------------------------------------------------------|
G|---77777777------------------------------------------------------|
D|---77777777--55555555--777777777--5555--7777---------------------| x2
A|---55555555--55555555--777777777--5555--7777---------------------|
E|-------------33333333--555555555--3333--5555---------------------|

Verse

e|-------------------------------------------------------|
B|-------------------------------------------------------|
G|--7----------------------------------------------------|
D|--7-x32---5---7----------------------------------------|
A|--5-------5---7----------------------------------------|
E|----------3---5----------------------------------------|

Pre Chorus

e|------------------------------------------------------|
B|------------------------------------------------------|
G|---77777777-------------------------------------------|
D|---77777777---55555555---77777777---------------------|
A|---55555555---55555555---77777777---------------------|
E|--------------33333333---55555555---------------------|

Chorus

e|--------------------------------------------------------------|
B|--------------------------------------------------------------|
G|---77777777---------------------------------------------------|
D|---77777777---55555555---77777777---5555--7777----------------|
A|---55555555---55555555---77777777---5555--7777----------------|
E|--------------33333333---55555555---3333--5555----------------|

Verse 3

e|--------------------------------------|-------------------------------------|
B|--------------------------------------|-------------------------------------|
G|--------------------------------------|-------------------------------------|
D|--55--5----55--5------77--7----77--7--|--9---5---4--2-----------------------|
A|--55--5----55--5------77--7----77--7--|--9---5---4--2-----------------------|
E|--33--3----33--3------55--5----55--5--|--7---3---2--0-----------------------|

Then Play The chorus Clean, But play it less amount of times

Order:

Verse
Pre chorus
Chorus
Verse 2
Pre chorus
Chorus
Verse 3
Chorus


Important: The song above is NOT stored on the Chordie server. The original song is hosted at www.guitaretab.com. Chordie works as a search engine and provides on-the-fly formatting. Chordie does not index songs against artists'/composers' will. To remove this song please click here.

This song is displayed as text-only. Transposing and tuning is only available for chordpro-songs.

Login - add to songbook

Rating click stars to rate

Layout
Accuracy

SHARE PAGE  




You need to log in to post comments