Guitar Tabs, Chords and Lyrics


The Breakup Song   Bowling For Soup



|---------------------------------------------------|
|--------The Breakup Song - Bowling For Soup--------|
|---------------------------------------------------|

I couldn't find a tab for this so I decided to do it myself because it is a great song. Enjoy!

Intro:
|-----------|
|-----------|
|-----------|
|--3--7--3--| x4
|--5--7--3--|
|--5--5--1--|

Verse:
|-----------------------|
|-----------------------|
|-----------------------|
|--88--44--1010--55-55--| x3
|--88--44--1010--55-55--|
|--66--22--8--8--33-33--|

|------------|
|------------|
|--pmpmpmpm--|
|--8-4-10-5--| x2
|--8-4-10-5--| 
|--6-2-8--3--|

Pre-Chorus:
|------------------|
|------------------|
|------------------|
|--88--444--10--3--| x2
|--88--444--10--3--|
|--66--222--8---3--|

Chorus:
|------------|
|------------|
|------------|
|--8-4-10-3--| x2
|--8-4-10-3--|
|--6-2-8--3--|

Verse:
|-----------------------|
|-----------------------|
|-----------------------|
|--88--44--1010--55-55--| x3
|--88--44--1010--55-55--|
|--66--22--8--8--33-33--|

|------------|
|------------|
|--pmpmpmpm--|
|--8-4-10-5--| x2
|--8-4-10-5--| 
|--6-2-8--3--|

Pre-Chorus
|------------------|
|------------------|
|------------------|
|--88--444--10--3--| x2
|--88--444--10--3--|
|--66--222--8---3--|

Chorus:
|------------|
|------------|
|------------|
|--8-4-10-3--| x3
|--8-4-10-3--|
|--6-2-8--3--|

Solo:
|------------------------------------------|
|------------------------------------------|
|--8/10101010--8/10101010--10-8-7-3-3h5p3--|
|------------------------------------------|
|------------------------------------------|
|------------------------------------------|

|-------------------------------------------|
|--15--13--11--10-------15--13--11--10--11--|
|---------------------10--------------------|
|-------------------------------------------|
|-------------------------------------------|
|-------------------------------------------|
 
Interlude:
|--------------------------|
|--------------------------|
|--------------------------|
|--8~-4~-10~-5~--8~-4~-10--|
|--8~-4~-10~-5~--8~-4~-10--|
|--6~-2~-8~--3~--6~-2~-8---|

Chorus
|------------|
|------------|
|------------|
|--8-4-10-3--| x5
|--8-4-10-3--|
|--6-2-8--3--|

Outro:
|----------------|
|----------------|
|----------------|
|--77-77-77-777--|
|--77-77-77-777--|
|--55-55-55-555--|

Key:
h - hammer on
p - pull off
~ - hold note breifly
pm - palm mute
/ - slide down


Important: The song above is NOT stored on the Chordie server. The original song is hosted at www.guitaretab.com. Chordie works as a search engine and provides on-the-fly formatting. Chordie does not index songs against artists'/composers' will. To remove this song please click here.

This song is displayed as text-only. Transposing and tuning is only available for chordpro-songs.

Login - add to songbook

Rating click stars to rate

Layout
Accuracy

SHARE PAGE  




You need to log in to post comments