Guitar Tabs, Chords and Lyrics


Boulevard   Bowling For Soup



Song Name: Boulevard
Band Name: Bowling For Soup
Album: Let's Do It For Johnny
Running Time: 3:32
Tuning: Standard
Palm Mute: *


Intro
Guitar 1
e 532-----532-----532---------------|
B ---2-------2-------2--------------|
G ----------------------4-2------99-|
D -------------------------------99-|
A -------------------------------77-|
E ----------------------------------|

Guitar 2
e ----------------------------------|
B ----------------------------------|
G ----------------44447777-------99-|
D ----------------44447777777777799-|
A ----------------22225555777777777-|
E ------------------------5555555---|

Verse
Guitar 1
e -------------------------------------|
B -------------------------------------|
G ----------------44447777-------99----|   x2
D 777777774444444444447777777777799
A 777777774444444422225555777777777
E 5555555522222222--------5555555
  ****************
Verse 1
Back there somewhere, I can hear her calling out, I've got so much I can tell her.
She knows I miss her, I know she thinks about me too, I just cannot wait to kiss her.

Verse 2
I think she likes me, I can see it when she laughs, she won't say it but I see it.
She loves to wake me, just to see if i'm asleep, just to tell me to move closer

Guitar 2 Verse
e ------------------------------------|
B ------------------------------------|
G ----------------4---7----------77---|
D 7-------4-------4---7---7------77---|  x2
A 7-------4-------2---5---7------55---|
E 5-------2---------------5-----------|

Pre-Chorus
Guitar 1 & 2

//Pickslide//
e -------------------------------------------------|
B -------------------------------------------------|
G ----------------7777777799999999-----------------|
D 4-4-4-4-7777777777777777999999997777777777777-77-|
A 4-4-4-4-7777777755555555777777777777777777777-77-|
E 2-2-2-2-55555555----------------5555555555555-54-|
On the Boulevard we dance, I'll tell her if i get the chance, just what all this means to me.

e ---------------------------------|
B ---------------------------------|
G ----------------7777777799999999-|
D 4-4-4-4-777777777777777799999999-|
A 4-4-4-4-777777775555555577777777-|
E 2-2-2-2-55555555-----------------|
                  **************
Maybe I'll just say, "We could run away and never look back, and never doubt it."

Chorus
Guitar 1 & 2

e ----------------------------------|
B ----------------------------------|
G 77779999--------77779999-------99-|
D 777799997777444477779999777777799
A 555577777777444455557777777777777
E --------55552222--------5555555--
You don't owe me anything, I owe everything to you, take my hand and hold on.

Bridge
Guitar 1
e 532-----532-----532-------------|
B ---2-------2-------2------------|
G ----------------------4-2-------|
D --------------------------------| x2  2nd time //Pickslide// at the end
A --------------------------------|
E --------------------------------|

Guitar 2
e --------------------------------|
B --------------------------------|
G ----------------4---7-----------|
D 7-------4-------4---7---7-------|
A 7-------4-------2---5---7-------|
E 5-------2---------------5-------|

e --------------------------------|
B --------------------------------|
G ----------------44447777--------|
D 7777777744444444444477777777777-   //Pickslide//
A 7777777744444444222255557777777-
E 5555555522222222--------5555555-
  ** *** *** *** *
Pre-Chorus Ver. 2
Guitar 1 & 2
e -------------------------------------------------|
B -------------------------------------------------|
G ----------------7777777799999999-----------------|
D 4------67777777777777777999999997777777777777-77-|
A 4------67777777755555555777777777777777777777-77-|
E 2------455555555----------------5555555555555-54-|
On the Boulevard we dance, I'll tell her if I get the chance, just what all this means to me.

e ---------------------------------| (notice that the downbeats are on
B ---------------------------------|   2 and 4 during that part...listen
G ----------------7777777799999999-|   to the song)
D -4-4-4-4777777777777777799999999-|
A -4-4-4-4777777775555555577777777-|
E -2-2-2-255555555-----------------|
                   ******* *****
Maybe I'll just say, "We could run away and never look back, and never doubt it."

e --------------------|
B --------------------|
G 7777777799999999----|
D 7777777799999999----|
A 5555555577777777----|
E --------------------|
   *******
Don't ever look back, don't ever doubt it. Ooooh...

Chorus Ver. 2 Guitar 1 & 2
e --------------------------------|
B --------------------------------|
G 77779999--------77779999--------|   x2
D 7777999977774444777799997777777-
A 5555777777774444555577777777777-
E --------55552222--------5555555-
You don't owe me anything, I owe everything to you, take my hand and hold on.

Outro Guitar 1 & 2
e ----------------------|   End on that D power chord...gotta love bowling
B ----------------------|   for Soup's leading tones...that never ever
G -----7----------------|   resolve.
D 7427-7----------------|
A 7427-5----------------|
E 5205------------------|


Song Order
1.Intro
2.Verse 1 x2
3.Pre-Chorus
4.Chorus
5.Verse 2 x2
6.Pre-Chorus
7.Chorus
8.Bridge (guitar part 1 x2)
9.Pre-Chorus Ver. 2
10.Chorus Ver. 2 x2
11. Outro

I'm only fifteen and this is the first tab I've ever written. This is a great song and 


Important: The song above is NOT stored on the Chordie server. The original song is hosted at www.guitaretab.com. Chordie works as a search engine and provides on-the-fly formatting. Chordie does not index songs against artists'/composers' will. To remove this song please click here.

This song is displayed as text-only. Transposing and tuning is only available for chordpro-songs.

Login - add to songbook

Rating click stars to rate

Layout
Accuracy

SHARE PAGE  




You need to log in to post comments