Guitar Tabs, Chords and Lyrics


Running From Your Dad   Bowling For Soup



Name: Eric H.
Date: 7/12/07
Standard Tuning

Probably one of BFS's funniest songs. It's just basic power chords unfourtuneatly 
my horrible spelling).

EDIT: Forgot the bridge. It's now been added.

Intro:
e|-------------------------------------------------------------|
B|-------------------------------------------------------------|
G|-------------------------------------------------------------|
D|-7-7---7-7-7-----7-7---7-7-7-----7-7---7-7-7-----7-7---7-7-7-|
A|-7-5---7-7-7-----7-7---7-7-7-----7-7---7-7-7-----7-7---7-7-7-|
E|-5-5---5-5-5-----5-5---5-5-5-----5-5---5-5-5-----5-5---5-5-5-|

Verse:
"Remember the summer time we were swinging..."
e|-------------------------------------------------|
B|-------------------------------------------------|
G|-------------------------------------------------| 3x
D|-7-7-7-7-7-7-7-7-7-7-7-7-----5-5-5-5-5-5-5-5-5-5-|
A|-7-7-7-7-7-7-7-7-7-7-7-7-----5-5-5-5-5-5-5-5-5-5-|
e|-5-5-5-5-5-5-5-5-5-5-5-5-----3-3-3-3-3-3-3-3-3-3-|

e|------------------------------------------------------|
B|------------------------------------------------------|
G|------------------------------------------------------|
D|-7-7-7-7-7-7-7-7-7-7-7-7-----5-5-5-5-5-5-5-5-5-5--4--3|
A|-7-7-7-7-7-7-7-7-7-7-7-7-----5-5-5-5-5-5-5-5-5-5--4--3|
e|-5-5-5-5-5-5-5-5-5-5-5-5-----3-3-3-3-3-3-3-3-3-3--2--1|

Chorus:
"And I can still see your dad....RUNNING AFTER ME WITH A SHOVEL IN HIS HAND"
e|-----------------------------------------------|
B|-----------------------------------------------|
G|-----------------------------------------------|
D|-3-3-3-3-3----5-5-5-5-5----7-7-7-7-7-7-7-7-7-7-|
A|-3-3-3-3-3----5-5-5-5-5----7-7-7-7-7-7-7-7-7-7-|
E|-1-1-1-1-1----3-3-3-3-3----5-5-5-5-5-5-5-5-5-5-|

"I don't remember much after that..."
e|-------------------------------|
B|-------------------------------|
G|-------------------------------|
D|-3-3-3-3-3-----------5-5-5-5-5-|
A|-3-3-3-3-3-----------5-5-5-5-5-|
E|-1-1-1-1-1-----------3-3-3-3-3-|

The Freakin' La Las
e|---------------------------------------------------|
B|---------------------------------------------------|
G|----------------5-5-5-5-5--------------------------|
D|--7-7-7-7-7-----5-5-5-5-5------5-5-5-5-5-5-5-5-5-5-|
A|--7-7-7-7-7-----3-3-3-3-3------5-5-5-5-5-5-5-5-5-5-|
E|--5-5-5-5-5--------------------3-3-3-3-3-3-3-3-3-3-|

Post La La's
e|-------------------|
B|-------------------|
G|-------------------|
D|-3-3-3-3-3-----5-5-|
A|-3-3-3-3-3-----5-5-|
E|-1-1-1-1-1-----3-3-|

Bridge:
"So I guess I'll just run away...Run away...Run away...He's starting to catch up"
e|---------------------------------------------------------------|
B|---------------------------------------------------------------|
G|---------------------------5-5-5-5-5----4-4-4-4-4----2-2-2-2-2-|
D|-3-3-3-3-3----5-5-5-5-5----5-5-5-5-5----4-4-4-4-4----2-2-2-2-2-|
A|-3-3-3-3-3----5-5-5-5-5----3-3-3-3-3----2-2-2-2-2----0-0-0-0-0-|
E|-1-1-1-1-1----3-3-3-3-3----------------------------------------|

"Run away...Run awwaaaaayy...I think I might throw up..."
"Run away...Run awwaaaaayy"
e|------------------------------------------------|
B|------------------------------------------------|
G|---------------------------5-5-5-5-5--5-5-5-5-5-|
D|-3-3-3-3-3----5-5-5-5-5----5-5-5-5-5--5-5-5-5-5-|
A|-3-3-3-3-3----5-5-5-5-5----3-3-3-3-3--3-3-3-3-3-|
E|-1-1-1-1-1----3-3-3-3-3-------------------------|




Important: The song above is NOT stored on the Chordie server. The original song is hosted at www.guitaretab.com. Chordie works as a search engine and provides on-the-fly formatting. Chordie does not index songs against artists'/composers' will. To remove this song please click here.

This song is displayed as text-only. Transposing and tuning is only available for chordpro-songs.

Login - add to songbook

Rating click stars to rate

Layout
Accuracy

SHARE PAGE  




You need to log in to post comments