Guitar Tabs, Chords and Lyrics


Girl All The Bad Guys Want Acoustic  Bowling For Soup

e---------------------------------------------------------------------------|


B---------------------------------------------------------------------------|


G---------------------------------------------------------------------------|

D---------------------------------------------------------------------------|
A----5-4-0----5-4-0----5-4-0---2-0------------------------------------------|
E--0--------4--------5------------------5-4---------------------------------|
[D]8 o'clock, Monday night a[G]nd I'm waitin'     [A]
[D]To finally talk to a girl [G]a little coole[A]r than me.
[D]Her name is Nona, she's a rocker with [G]a nose ring,      [A]
[D]She wears a two way, but I'm not quite sure[G] what that mea[A]ns.
[B#]And when she walks,[A]
All the wi[D]nd blows and the angels sing[G].
But sh[E]e doesn't notice me!      [G]
(no chord) DD
Cause she is watchin' wrestling
(no chord) EE
Creamin' over tough guys
(no chord) F#F#
Listenin' to rap metal
(no chord) GG
Turntables in her eyes

It's like a bad movie     [E]
She is lookin' throu[F#]gh me
If you were me, then you'd be  [G]
Screamin' "Someone shoot me!"  [F#]
As I fail miser[G]ably,
Tryin' to get [A]the girl all the bad guys want.
e---------------------------------------------------------------------------|
B---------------------------------------------------------------------------|
G---------------------------------------------------------------------------|
D---------------------------------------------------------------------------|
A----5-4-0----5-4-0----5-4-0---2-0------------------------------------------|
E--0--------4--------5------------------5-4---------------------------------|


Repeat above riff once more

[D]She likes the godsmack and I like agent orange  [G]        [A]
[D]Her cd changer's full of singers [G]that are mad at their [A]dad
[D]She says she'd like to score some reefer and a f[G]orty             [A]
[D]She'll never know that I'm the best that sh[G]e'll never ha[A]ve

[B#]And when she walks,[A]
All the wi[D]nd blows and the angels sing[G].
But sh[E]e doesn't notice me!      [G]
(no chord) DD
Cause she is watchin' wrestling
(no chord) EE
Creamin' over tough guys
(no chord) F#F#
Listenin' to rap metal
(no chord) GG
Turntables in her eyes

(slide) D
She likes 'em with a moustache
Racetrack season[E] pass
Drivin' in a Tra[F#]ns-Am
Does a mullet make a [G]man?

It's like a bad movie     [E]
She is lookin' throu[F#]gh me
If you were me, then you'd be  [G]
Screamin' "Someone shoot me!"  [F#]
As I fail miser[G]ably,
Tryin' to get [A]the girl all the bad guys want.
e---------------------------------------------------------------------------|
B---------------------------------------------------------------------------|
G---------------------------------------------------------------------------|
D---------------------------------------------------------------------------|
A----5-4-0----5-4-0----5-4-0---2-0------------------------------------------|
E--0--------4--------5------------------5-4---------------------------------|


Repeat above riff 3 times

[B#] There she goes again
With fi[A]shnets on, and dreadlock[G]s in her hair
[B#]She broke my heart[A], I wanna be sedated      [G]
[A]All I wanted was to see her naked!

Play this:
I----------------------------------------------------------------------|
I----------------------------------------------------------------------|
I---7---7------9---9------11---11------12----12------------------------|
I--0-0-0-0----0-0-0-0----0--0-0--0----0--0--0---0----------------------|
I-5---5------7---7------9----9------10----10---------------------------|
I----------------------------------------------------------------------|


For This:
Now I am watchin' wrestling
Tryin' to be a tough guy
Listenin' to rap metal
Turntables in my eyes
I can't grow a moustache
And I ain't got no season pass
All I got's a moped...moped....moped.....

It's like a bad movie     [E]
She is lookin' throu[F#]gh me
If you were me, then you'd be  [G]
Screamin' "Someone shoot me!"  [F#]
As I fail miser[G]ably,
Tryin' to get [A]the girl all the bad guys want.
e----------------------------------------------------------------------------|
B----------------------------------------------------------------------------|
G----------------------------------------------------------------------------|
D----------------------------------------------------------------------------|
A----5-4-0----5-4-0----5-4-0---2-0-------------------------------------------|
E--0--------4--------5------------------5-4----------------------------------|


Repeat above riff until end

'Cause she's the girl all the bad guys want!
'Cause she's the girl all the bad guys want!
'Cause she's the girl all the bad guys want!
(There she goes again)
'Cause she's the girl all the bad guys want!
'Cause she's the girl all the bad guys want!
(There she goes again)
'Cause she's the girl all the bad guys want!
'Cause she's the girl all the bad guys want!

Important: The song above is NOT stored on the Chordie server. The original song is hosted at www.guitaretab.com. Chordie works as a search engine and provides on-the-fly formatting. Chordie does not index songs against artists'/composers' will. To remove this song please click here.

Text color:
Chord color:
Chord grids: 
Font size:    
Page size: 

A D E F# G
variations - click chord images

Login - add to songbook

Transpose chords

Tuning

Rating click stars to rate

Layout
Accuracy

SHARE PAGE  




You need to log in to post comments