Guitar Tabs, Chords and Lyrics


Little Red Riding Hood Cursed Soundtrack   Bowling For Soup



INTRO:
E ----------------|
B ----------------|
G ----------------|
D -7-/-6-/-4------|
A -7-/-6-/-4------| X3
E -5-/-4-/-2------|
           ^Let Ring
Owoooooooo!
Who's that I see walkin' in these woods?
Why, it's Little Red Riding Hood.


VERSE:

E -----------------------------------------|
B -----------------------------------------|
G --------------------7-7--6-6-------------|
D -4-4--7-7--9-9-9-9--7-7--6-6--4-4-4-4----| X2
A -4-4--7-7--9-9-9-9--5-5--4-4--4-4-4-4----|
E -2-2--5-5--7-7-7-7------------2-2-2-2----|

Hey there Little Red Riding Hood,
You sure are looking good.
You're everything a big bad wolf could want.
Listen to me.

Little Red Riding Hood
I don't think little big girls should
Go walking in these spooky old woods alone.
Owoooooooo!

Chorus:
E ---------------------------------------------|
B ---------------------------------------------|
G -------------------------------7777--66/44---|
D -77777777--44444444--99999999--7777--66/44---|  X2
A -77777777--44444444--99999999--5555--44/22---|
E -55555555--22222222--77777777----------------|

What big eyes you have,
The kind of eyes that drive wolves mad.
So just to see that you don't get chased
I think I ought to walk with you for a way.

What full lips you have.
They're sure to lure someone bad.
So until you get to grandma's place
I think you ought to walk with me and be safe.

VERSE:
E ----------------------------------------------------|
B ----------------------------------------77/66/55/33-|
G --------------------7-7--6-6------------66/55/44/22-|
D -4-4--7-7--9-9-9-9--7-7--6-6--4-4-4-4---------------|
A -4-4--7-7--9-9-9-9--5-5--4-4--4-4-4-4---------------|
E -2-2--5-5--7-7-7-7------------2-2-2-2---------------|

I'm gonna keep my sheep suit on
Until I'm sure that you've been shown
That I can be trusted walking with you alone.
Owoooooooo!

VERSE:
E -----------------------------------------------------|
B -----------------------------------------------------|
G ----------------------7777--6666---------7777/6666---|
D -4444--7777--9999999--7777--6666--4444---7777/6666---|
A -4444--7777--9999999--5555--4444--4444---5555/4444---|
E -2222--5555--7777777--------------2222---------------|

Little Red Riding Hood
I'd like to hold you if I could
But you might think I'm a big bad wolf so I won't.
Owoooooooo!

Chorus:
E ---------------------------------------------|
B ---------------------------------------------|
G -------------------------------7777--66/44---|
D -77777777--44444444--99999999--7777--66/44---|  X2
A -77777777--44444444--99999999--5555--44/22---|
E -55555555--22222222--77777777----------------|

What a big heart I have-the better to love you with.
Little Red Riding Hood
Even bad wolves can be good.
I'll try to be satisfied just to walk close by your side.
Maybe you'll see things my way before we get to grandma's place.

VERSE:
E ----------------------------------------------------|
B ------------------------------------77/66/55/33-----|
G --------------------7-7--6-6--------66/55/44/22-----|
D -4-4--7-7--9-9-9-9--7-7--6-6--4-4-------------------|
A -4-4--7-7--9-9-9-9--5-5--4-4--4-4-------------------|
E -2-2--5-5--7-7-7-7------------2-2-------------------|

Little Red Riding Hood
You sure are looking good
You're everything that a big bad wolf could want.
Owoooooooo! I mean baaaaaa! Baaa?

OUTRO:
E ----------------------------------------------------|
B ------------------------------------77/66/55/33-----|
G --------------------7-7--6-6--------66/55/44/22-----|
D -4-4--7-7--9-9-9-9--7-7--6-6--4-4----------------4--|
A -4-4--7-7--9-9-9-9--5-5--4-4--4-4----------------4--|
E -2-2--5-5--7-7-7-7------------2-2----------------2--|


Important: The song above is NOT stored on the Chordie server. The original song is hosted at www.guitaretab.com. Chordie works as a search engine and provides on-the-fly formatting. Chordie does not index songs against artists'/composers' will. To remove this song please click here.

This song is displayed as text-only. Transposing and tuning is only available for chordpro-songs.

Login - add to songbook

Rating click stars to rate

Layout
Accuracy

SHARE PAGE  




You need to log in to post comments