Guitar Tabs, Chords and Lyrics


Luckiest Loser   Bowling For Soup



-----------------------------------------------------------------
Luckiest Loser - Bowling For Soup
-----------------------------------------------------------------
Tabbed by: Bair
Email: bair_morritt@hotmail.com
Tuning: Standard

Intro/ Verse:
e|---------------------------------------------------------------|
B|---------------------------------------------------------------|
G|--7777--4444--2222---------------------------------------------|
D|--7777--4444--2222--5555---------------------------------------|
A|--5555--2222--0000--5555---------------------------------------|
E|--------------------3333---------------------------------------|
"Man, your really one heck of a guy...."

Pre-Chorus:
e|---------------------------------------------------------------|
B|---------------------------------------------------------------|
G|--------7777--9999---------------------------------------------|
D|--5555--7777--9999--7777---------------------------------------|
A|--5555--5555--7777--7777---------------------------------------|
E|--3333--------------5555---------------------------------------|
"Your new girlfriend is a son of a gun...."

Chorus:
e|---------------------------------------------------------------|
B|---------------------------------------------------------------|
G|--7777--------4444---------------------------------------------|
D|--7777--7777--4444--5555--(X2)---------------------------------|
A|--5555--7777--2222--5555---------------------------------------|
E|--------5555--------3333---------------------------------------|
"That girl is crazy, shes a locomotion...."

Post-Chorus:
e|---------------------------------------------------------------|
B|---------------------------------------------------------------|
G|--4444--------------4444---------------------------------------|
D|--4444--5555--7777--4444--5555--7777---------------------------|
A|--2222--5555--7777--2222--5555--7777---------------------------|
E|--------3333--5555--------3333--5555---------------------------|
"Now your stuck with her...."

Bridge:
e|---------------------------------------------------------------|
B|---------------------------------------------------------------|
G|-44------77----------------------------------------------------|
D|-44--55--77--77-------5----------------------------------------|
A|-22--55--55--77--(X2)-5----------------------------------------|
E|-----33------55-------3----------------------------------------|


Important: The song above is NOT stored on the Chordie server. The original song is hosted at www.guitaretab.com. Chordie works as a search engine and provides on-the-fly formatting. Chordie does not index songs against artists'/composers' will. To remove this song please click here.

This song is displayed as text-only. Transposing and tuning is only available for chordpro-songs.

Login - add to songbook

Rating click stars to rate

Layout
Accuracy

SHARE PAGE  




You need to log in to post comments