Chordie logo

Letter From Prison   Boy Hits Car



Letter From Prison by Boy Hits Car
from the album Boy Hits Car
Drop D Tuning

e------------|--------------| strum these chords
B------------|--------------|
G-7--5--7--5-|-7--5--7--10--| repeat second section twice
D-7--5--7--5-|-7--5--7--10--|
A-5--3--5--3-|-5--3--5--8---|
D------------|--------------|

0.41
e----------------|
B----------------|
G----------------|
D----------------|
A-5555-55-55-55--|
D----------------|

VERSE
e----------------|
B----------------|
G----------------|
D----------------|
A-5555-55-55-55--|
D-0000-00-00-00--|

e------------------------|
B------------------------|
G----777----5/77----555--|
D----777----5/77----555--|
A-00-555-00-3/55-00-333--|
D-00-----00------00------|

2.25
e------|
B------|
G------|
D------|
A------|
D-0/12-|

OUTRO           x7
e---------------|------|
B---------------|------|
G-7777-77-77-77-|------|
D-7777-77-77-77-|------|
A-5555-55-55-55-|-5-5--|
D-0000-00-00-00-|-0-0--|

Any corrections please comment
Thanks


Important: The song above is NOT stored on the Chordie server. The original song is hosted at www.guitaretab.com. Chordie works as a search engine and provides on-the-fly formatting. Chordie does not index songs against artists/composers will. To remove this song please click here.

This song is displayed as text-only. Transposing and tuning is only available for chordpro-songs.

Login - add to songbook

Rating click stars to rate

Layout
Accuracy

SHARE PAGE  

You need to log in to post comments