eToCache5 = ""; ?> Up In This Town by Boy - guitar chords, guitar tabs and lyrics - chordie

Up In This Town

Boy

e---------|----------------|----------------|

b---------|--------7-5-----|--------7-5-----|
g---------|--------7-5-----|--------7-5-----|
d------5h7|--5-7-5-------7-|--5-7-5-------7-|
a------5h7|--5-7-5-------7-|--5-7-5-------7-|
D------5h7|--5-7-5-------7-|--5-7-5-------7-|
 1+2+3+4+12341234
             ]    ]    ]    ]     ]    ]  ]
These Two bars right here make your main riff.repeat main riff once for bass
play the riff again 2 more times for the rest of the intro.

Verse:
play main riff twice and then play this:

Riff 2.
e|----------------|----------------|
b|----------------|----------------|
g|9---9-9-9-9-9-7-|--7-7-7-7-7-7---|
d|9---9-9-9-9-9-7-|--7-7-7-7-7-7-7-|
a|7---7-7-7-7-7-5-|--5-5-5-5-5-5-7-|
D|----------------|--------------7-|

 12341234
    ]    ]    ]    ]     ]    ]    ]    ]   
repeat the main riff 3 times and that part.

main riff once

Chorus: there are 3 parts here. part1 is rythem, part 2 is lead, part 3 effects.

Part 1 Rythem Guitar(I think the singer plays this)

e|----------------|----------------|----------------|----------------|
b|----------------|----------------|----------------|----------------|
g|2-2-2-2-2-2-2-2-|2-2-2-2-2-2-2-2-|9-9-9-9-9-9-9-9-|9-9-9-9-9-9-9-9-|
d|2-2-2-2-2-2-2-2-|2-2-2-2-2-2-2-2-|9-9-9-9-9-9-9-9-|9-9-9-9-9-9-9-9-|
a|0-0-0-0-0-0-0-0-|0-0-0-0-0-0-0-0-|7-7-7-7-7-7-7-7-|7-7-7-7-7-7-7-7-|
d|----------------|----------------|----------------|----------------|

 1234123412341234
    ]    ]    ]    ]     ]    ]    ]    ]   ]
e|----------------|----------------|----------------|----------------|
b|----------------|----------------|----------------|----------------|
g|7-7-7-7-7-7-7-7-|7-7-7-7-7-7-5-5-|2-2-2-2-2-2-2-2-|2-2-2-2-2-2-2-2-|
d|7-7-7-7-7-7-7-7-|7-7-7-7-7-7-5-5-|2-2-2-2-2-2-2-2-|2-2-2-2-2-2-2-2-|
a|5-5-5-5-5-5-5-5-|5-5-5-5-5-5-3-3-|0-0-0-0-0-0-0-0-|0-0-0-0-0-0-0-0-|
d|----------------|----------------|----------------|----------------|

 1234123412341234
    ]    ]    ]    ]     ]    ]    ]    ]   pl]ay t]his ]the ]first] tim]e.  ]    ]
dont play next time

Part 2 Lead Guiitar

Play main riff underneath. it isnt very loud, but i can still hear it.

Part 3 Effects

This is some odd effect. Dont kno wat it is but here it is.

e|--3-5-3-5-3-----|--3-5-3-5-3-----|--3-5-3-5-3-----|
b|3-------------3-|--------------3-|--------------3-|
g|----------------|----------------|----------------|
d|----------------|----------------|----------------|
a|----------------|----------------|----------------|
d|----------------|----------------|----------------|

 123412341234
    ]    ]    ]    ]     ]    ]    ]    ]   ]
Just repeat that part a bunch of times.

play chorus again.

Interlude play main riff once.

Verse 2

basically the same as verse 1 except for this before the chorus
Half step bend b=bend r=release
e|----------------|
b|--------7br-5---|
g|--------7br-5---|
d|--5-7-5-------7-|
a|--5-7-5-------7-|
d|--5-7-5-------7-|

 1234
    ]    ]    ]    ]                    
The rest of the song is basically the same thing. Sorry how im so lazy.

There you go. Listen to the song to figure out how many times to play the main riff in
places. Thats as clear as i could make it. use guitar pro or powertab if u have to. Peace.


variations - click chord images
Transpose chords:
Tuning:
Cool service:
View: Size:
A  A  A
Rating:
Layout:
  • Currently 0/5 Stars.
  • 1
  • 2
  • 3
  • 4
  • 5
 
Accuracy:
  • Currently 2.3/5 Stars.
  • 1
  • 2
  • 3
  • 4
  • 5
 
click stars to rate
Chordie recommends:
Learn how to play guitar at JamPlay.com
Songbook:
Login to add this song to your songbook
Support the artist
Preview/buy this song
MSN Music
Why this non-profit ad?

 
login to add comments/video/corrections