Warrens Song Part 4

Bracket

----------------------------------------------------------------------------------------

----------------------------------------------------------------------------------------
e|-------------------------------------------|
B|-------------------------------------------|
G|-----9-------7-------4--------10-------8---|
D|-2---9---7---7---5---4----4---10---8---8---|
A|-2---7---7---5---5---2----4---8----8---6---|
E|-0-------5-------3--------2--------6-------|
----------
----------
e|------------------------- e|-------------------------|
B|------------------------- B|-------------------------|
G|-7~7-7---7-7------------- G|-2~2---2-2---------------|
D|-7~7-7-7-7-7------------- D|-2~2-2-2-2---------------|
A|-5~5-5-7-5-5------------- A|-0~0-2-0-0---------------|
E|-------5----------------- E|-----0-------------------|

 G5D5G5
e|--------------------------|
B|--------------------------|
G|-------7------------------|
D|-5~5-5-7-5-5--------------|
A|-5~5-5-5-5-5--------------|
E|-3~3-3---3-3--------------|


Solo:

(~ Means let ring)

(Riff 1) (Riff 2)
e|--------5-10~---9-10-12-10-9-10-------9~-------------9~---8-9-10-9-8-9--------------|
B|-7~-6-7-------------------------8-10------8~--7-8-10--------------------8-10-7~-----|
G|------------------------------------------------------------------------------------|
D|------------------------------------------------------------------------------------|
A|------------------------------------------------------------------------------------|
E|------------------------------------------------------------------------------------|


(Riff 1) (Riff 3) (Riff 1) (Riff 3) D A
e|--------5-10~---9-10-12-10-9-10-9-8-7~--7~------7-----------------------------------|
B|-7~-6-7------------------------------------8-10---10~----8-7-8-7-5-3-5-2-3------2-3-|
G|---------------------------------------------------------------------------2-4------|
D|------------------------------------------------------------------------------------|
A|------------------------------------------------------------------------------------|
E|------------------------------------------------------------------------------------|
----------

Bridge:
----------


Riff 1 (4x)

----------

Verse 1
----------


Note: Where it says G here, it actually is Riff 3, but in standart tuning this sounds
crappy so just play G instead of Riff 3.

(Riff 1) (Riff 2)
Warren says don't spread lies
G D A (Riff 1)
The children outside think that they know the truth, it's not right
(Riff 2)
He don't have alibis
G D A G (start strumming)
The stories they've told have stripped him from his youth, he asks why
 AG
No one cares how I feel anymore
 ABBBB
I'm wondering what I'm living for                   

----------

Chorus
----------


 DA
 Warren says he doesn't care
 GAD
But when the sun hits his face you can see the sadness in his eyes
 A
No one said life is fair
 GAB
When all the rumors circulate of incest, it's all lies

---------

Bridge
---------


 BF#D
 And when he breaks down and starts to cry      
 AB
They all laugh at him       
 F#D
He wants to crawl away and die    
 EEEE
There's nowhere to go                    

----------

Bridge
----------


Note: This is played FAST people, and I mean FAST
Tempo goes waaaayyyyyyy up here!

 FBbDG
----------

Middle8
----------


 FBb
   He wants to kill someone
 DG
   But he knows it's not right
 FBb
   His life is so pathetic
 DEb
   He's not to blame
 FBb
   They all spit on him and
 DG
   try to get him to fight
 FBb
  He tries to call out for help
 DEb
  But no one came
 DF
 Help......me.......

----------

Chorus
----------


 DA
 Warren says he doesn't care
 GAD
But when the sun hits his face you can see the sadness in his eyes
 A
No one said life is fair
G A G (Let ring) D (Let Ring)
When all the rumors circulate of incest, he asks why??


A B Bb D D5 E Eb F F# G G5
variations - click chord images
Transpose chords:
Tuning:
Cool service:
View: Size:
A  A  A
Rating:
Layout:
  • Currently 3.5/5 Stars.
  • 1
  • 2
  • 3
  • 4
  • 5
 
Accuracy:
  • Currently 3/5 Stars.
  • 1
  • 2
  • 3
  • 4
  • 5
 
click stars to rate
Chordie recommends:
Learn to play songs at Jamplay.com with video guitar lessons
Songbook:
Login to add this song to your songbook
Support the artist
Preview/buy this song
MSN Music
Why this non-profit ad?

 
login to add comments/video/corrections