Make A Mistake

Brad Paisley

-----------------------------------------------------------------------------

-----------------------------------------------------------------------------

*****************************************************************************

INTRO (see seperate intro tab)

 CAbdimAmFm/BAmC9F
 You overthink things you say, what if we're not meant to be?
 DdimAmAbdimAm
 You know what? So   what!
 Fmaj7G/B
 Make a mistake with me.

 CAbdimAmFm/BAmC9F
 Nobody goes through this life and does everything perfectly.
 DdimAmAbdimAm
  We're all gonna fail, so you might as well,
 Fmaj7G/BC
 Make a mistake with me.

 E7Am
 Sometimes baby, when we take
 E7Am
  A chance that has this much at stake.

*SEE TAB*
 A
  We look back and in hindsight,
 AmGmFmAbdim
 What seemed wrong looks more like right.

 CAbdimAmFm/BAmC9F
 So I say worst case, we'll be left with lots of good memories.
 DdimAmAbdimAm
 This chance we have, well its worth that.
 Fmaj7G/BC
So make a mistake with me.
 DdimAmAbdimAm
 I'm tellin' you, right thing to do,
F C G/B F ?1 ?2
Is make a mistake, make a mistake,
F G/B ?3
Make a mistake with me.

Spoken: Whoops, help me out....

*****************************************************************************

TAB FOR MIDDLE PART

 AAmGmFmAbdim
E--------------------------8\---5\---3\-----------|
B--1/2-1/2-3-5/8-5/7-5-3--10\---3\---1----5-3-----|
G--------------------------9\---3\---1----4-4-4---|
D--1/2-1/2-4-5/9-5/7-5-4--10\-x-5\-x-3\-x-3--3----|
A-----0---0-0-0-0---0-0------x----x----x----------|
E------------------------------------------4------|


 End

A Abdim Am C C9 Ddim E7 F Fm Fm/B Fmaj7 G/B Gm
variations - click chord images
Transpose chords:
Tuning:
Cool service:
View: Size:
A  A  A
Rating:
Layout:
  • Currently 2.4/5 Stars.
  • 1
  • 2
  • 3
  • 4
  • 5
 
Accuracy:
  • Currently 3/5 Stars.
  • 1
  • 2
  • 3
  • 4
  • 5
 
click stars to rate
Chordie recommends:
Learn to play songs at Jamplay.com with video guitar lessons
Songbook:
Login to add this song to your songbook
Support the artist
Preview/buy this song
MSN Music
Why this non-profit ad?

 
login to add comments/video/corrections