eToCache5 = ""; ?> New Again by Brad Paisley - guitar chords, guitar tabs and lyrics - chordie

New Again

Brad Paisley

E|----5----5----0----------------0------------------------5-|

B|----5-----------------5/-----3---3--3-----2--2h3-0----0---|
G|----7---7----7--6--6-7-----4-----4--4----2-------0--0-----|
D|----7--7----7---7-----------------------4-----------------|
A|--5--------0---0--------2---------------------------------|
D|0---------------------------------------------------------|
E|---0------0-2--2--0-0-----------0\2--2-2---2-0-----------|
B|--------3---------2-2-------2---2\3--3-3---3-2---3-2-0-0-|
G|------2------------2------2--2------------------2------0-|
D|-------------------------2-2-------------------4---------|
A|---------------0--0-0---0--------------------------------|
D|0------------------------------------------------------5-|
E|------5---|
B|---3-----3|
G|0---------|
D|----------|
A|----------|
D|----------|
E|------0h2------0---------0h2------0----|
B|----------3------------------3---------|
G|----2--------2---------2---------2-----|
D|---------------------------------------|
A|---------------------------------------|
D|0------------------0------------0-----0|

 DF#m
 Mother - do not cry for me
 GAD
All of this is exactly how it's supposed to be
 ADF#m
 I'm right here, can you hear my voice
 GAD
My life, my love, my Lord....my baby boy

Chorus:
 ABm
As they nail me to this tree
 ABm
Just know the Father waits for me
 GD
God how can this be your will
 F#mG
To have your son and my son killed
 DA
Whatever happens...whatever you see
 F#mG
Whatever your eyes tell you has become of me
 GD
This is not...it's not the end
Bm A D (some say G second time, but i dont know?)
I am making all things new again

 DF#m
I remember when you were born
 GAD
In that manger where I first held you in my arms
 ADF#m
 So many miracles and lives you've changed
 GAD
And this world repays you how, with all this pain

CHORUS

 GF#mBmAG

 DA
Whatever happens...whatever you see
 F#mG
Whatever your eyes tell you has become of me
 GD
This is not...it's not the end
 BmAD
I am making all things new again

D A Bm G (play a few times)


A Bm D F#m G
variations - click chord images
Transpose chords:
Tuning:
Cool service:
View: Size:
A  A  A
Rating:
Layout:
  • Currently 3.7/5 Stars.
  • 1
  • 2
  • 3
  • 4
  • 5
 
Accuracy:
  • Currently 3.2/5 Stars.
  • 1
  • 2
  • 3
  • 4
  • 5
 
click stars to rate
Chordie recommends:
Check out JamPlay.com for online video guitar lessons
Songbook:
Login to add this song to your songbook
Support the artist
Preview/buy this song
MSN Music
Why this non-profit ad?

 
login to add comments/video/corrections