Scholarship Is The Enemy Of Romance

Billy Bragg

 GGsusEmCFCG
e -||----------------------------------------------------------|
B -||---------0h1-0----------------0h1p0------1----------0-----|
G -||.-------(0)--0-0---0---------------0-----2---0--0---0-----|
D -||.----0---------2---2--0---2----------0---3---2------0-----|
A -||----2----------2---2-(0)--3------------------3------2-----|
E -||---3---------------.--------------------------------3-----|


 GEmCFCG
e ------------------------------------------------------------|-|
B ----------1/3\1-0----------------0h1p0------1----------0----|-|
G ---------(0)----0-0---0---------------0-----2---0--0---0---.|-|
D ------------------2---2--0---2----------0---3---2------0---.|-|
A ------------------2---2-(0)--3------------------3------2----|-|
E ----------------------.--------------------------------3----|-|x2


(verse): same picking

 GGsusGEmCFCG
   scholarship is                  the enemy  of ro-mance
where does that leave me alone in the rain again
what happened to the weekend I'd-
-planned with you
we didn't even get upstairs this time

('chorus') :
 EmDG
e -----------2-------3----------------------|
B ----0------3-------0-------1/3--\1-0------|
G ----0------2-------0-------0-------0------|
D ----2------0-------0----------------------|
A ----2--------------2----------------------|
E ----0--------------3----------------------|

I never missed

 EmDG
e -----------2-------------------------------|
B ----0------3------------0----0-0-0-0--1-3--|
G ----0------2------------0----0-0-0-0--0-0--|
D ----2------0------------0----0-0-0-0--0-0--|
A ----2-------------------2------------------|
E ----0-------------------3------------------|

that end of term kiss

 EmDGCGC
e -----------2------------3-----------------------------|
B ----0------3------------0-----------------------------|
G ----0------2------------0-------0----------0--------0-|
D ----0------0------------0-------2----------0--------2-|
A ----2-------------------2-------3----------2--------3-|
E ----0-------------------3------------------3----------|

but where did it go miss I don't know miss

 DDCG
e --2--------------------------------|
B --3--------------------------------|
G --2-------------------2------------|
D --0-------------------0---2--------|
A --------------------------3---2----|
E ------------------------------3----|


 GEmCFCG
 take me to the fair         hold me close as we fly through the air
and suddenly on Sunday it all just melted away
and when it had gone leaving patches of yellowing grass
I found a coin, but lost what I'd been looking for

 EmDG
      I      never     took
the advice in that book C G C
but if you might look sir you might learn sir you might

(outro)
 GDGGsus
e ---3----2---3--------------------------|
B ---0----3---0--0-0-0-0--1--0-----------|
G ---0----3---0--0-0-0-0--0--0-----------|
D ---0----0---0--0-0-0-0--0--0-----------|
A ---2--------2--------------------------|
E ---3--------3--------------------------|

learn sir

 GDGGsus
e -||---3-----2-----3-------------------||------|
B -||---0---0-3---0-0--0-0-0-0--1--0----||------|
G -||.--0---0-2---0-0--0-0-0-0--0--0---.||------|
D -||.--0-----0-----0--0-0-0-0--0--0---.||------|
A -||---2-----------2-------------------||------|
E -||---3-----------3-------------------||------| x 2


 EmCDDsus
e -||---------------2--2-2-2-2--3--2----||----|
B -||---------1-----3--3-3-3-3--3--3----||----|
G -||.--0---0-0--0--2--2-2-2-2--2--2---.||----|
D -||.--2---0-2--0--0--0-0-0-0--0--0---.||----|
A -||---2---0-3-------------------------||----|
E -||---0-------------------------------||----| to fade


h is a hammer on
p is a pull off
/ is slide up
\ is a slide down
. is hit it hard then mute with your right hand straight away

chords

EADGBe
320003 - G
320023 - Gsus
022000 - Em
xx3211 - F
x32010 - C
xx0232 - D

Nic

Nic.Boulton@bn.cwplc.com


C D Dsus Em F G Gsus
variations - click chord images
Transpose chords:
Tuning:
Cool service:
View: Size:
A  A  A
Rating:
Layout:
  • Currently 3.3/5 Stars.
  • 1
  • 2
  • 3
  • 4
  • 5
 
Accuracy:
  • Currently 3.5/5 Stars.
  • 1
  • 2
  • 3
  • 4
  • 5
 
click stars to rate
Songbook:
Login to add this song to your songbook
IMPORTANT: The song above is NOT stored on the Chordie server. The original song is hosted at www.guitaretab.com. Chordie works as a search engine and provides on-the-fly formating. Chordie does not index songs against artists/composers will. To remove this song please click here.

 
login to add comments/video/corrections