Guitar Tabs, Chords and Lyrics


Thunder Without Rain  Brainstorm

It's like a thunder without [Bm]rain
Or like a week without [A]sunday
Or like a book without [C]last page
You want to buy and have[Em] to pay

A storm without [Em]rain
Without any dest[Dsus2]ruction
It's a good old [A]game
Million pleasures, but no satisf[Esus]action

Storm takes your desires
And all expectations
It would happen anyway
It's the only way to lose your frustration

It's like a thunder without rain
Or like a week without sunday
Or like a book without last page
You want to buy and have to pay
And you can feel without a touch,
And you can hear without speakers.
Of course, you'll see without TV,
And we will run without sneakers.

Red, red sky,
And Atlants are swimming by.
The same mistakes,
Different time and different place.

Red, red sky,
And Atlants are swimming by.
The same mistakes,
Different time and different place.

It's like a thunder without rain
Or like a week without sunday
Or like a book without last page
You want to buy and have to pay
And you can feel without a touch,
And you can hear without speakers.
Of course, you'll see without TV,
And we will run without sneakers.

solo

E:--19b~-----------------------------------------------------------|
B:--------12~~---12h14p12------------------------------------------|
G:-----------------------14-13-------------------------------------|
D:-----------------------------------------------------------------|
A:-----------------------------------------------------------------|
E:-----------------------------------------------------------------|
E:--19b~-----------------------------------------------------------|
B:--------12~~---12h14p12------------------------------------------|
G:-----------------------14-13---13/14-14/16-16/18-18/19-21~~------|
D:-----------------------------------------------------------------|
A:-----------------------------------------------------------------|
E:-----------------------------------------------------------------|


[Em]One song is over,
Another on[A]e in .
[Em]The more you know, the more you know,
You try to[A] forget.
Yeah, heaven[Em] and earth,
There will be n[Dsus2]o winners.
As we all are [A]sleaves,
And we are, we are sad [Esus]sinners.

It's like a thunder withou[Bm]t rain
Or like a week without sund[A]ay
Or like a book without la[C]st page
You want to buy and have to [Em]pay
And you can feel without a [Bm]touch,
And you will hear without s[A]peakers.
Of course, you'll see wi[C]thout TV,
And we will run without sn[Em]eakers.
[Bm]...[A]  [C]   [Em]

Important: The song above is NOT stored on the Chordie server. The original song is hosted at www.guitaretab.com. Chordie works as a search engine and provides on-the-fly formatting. Chordie does not index songs against artists'/composers' will. To remove this song please click here.

Text color:
Chord color:
Chord grids: 
Font size:    
Page size: 

A Bm C Dsus2 Em Esus
variations - click chord images

Login - add to songbook

Transpose chords

Tuning

Rating click stars to rate

Layout
Accuracy

SHARE PAGE  




You need to log in to post comments