Guitar Tabs, Chords and Lyrics


Leaving To La  Brainstorm

e|--------2--------2---------2---------2-----|


B|-----3--------3---------3---------3--------|


G|--2--------2---------2---------2-----------|

D|-------------------------------------------|
A|-------------------------------------------|
E|-------------------------------------------|
e|--10--9---------10--9---------10--9-------------------------|
B|----------7-------------5-------------7-------7--8--10------|
G|------------------------------------------------------------|
D|------------------------------------------------------------|
A|------------------------------------------------------------|
E|------------------------------------------------------------|
[D]Nothing comes by accid[Bm]ent
[D]Even when you're dream[Bm]ing
If we c[G]an't find a common w[A]ay
Well, if we c[G]an't find
I'm le[F#m]avin' to L.[D]A.
Or to Tokyo
No place is then too far
And no place can be too hard
I'm leavin'
I'm leavin' to L.A.

[D]Nothing perso[Bm]nal
[D]Nothing to be affraid [Bm]of
If we c[G]an't find a common w[A]ay
[G]Yeah, if we can't find
I'm l[A]eavin', leavin'

Chorus:

[Bm]Oh…oh…o[G]h… where the s[Em]ecrets loose their se[A]crets
Where the s[Bm]unset meets the [G]ocean for the [Em]first t[A]ime
Oh, where I finally see my brothers
Where the mighty mountains looks so tiny


Nothing comes by accident
Wake up, stop dreaming
I do the four shores and seven seas
I'm leavin', I'm leavin' to

Wherever you say
Nothing to be affraid of
Oh, if we can't find a common way
Yeah, if we can't find
I'm leavin', leavin'

Oh, where the secrets loosing secret
Where the sunset meets the ocean for the first time
Oh, where I finally see my brothers
Where the mighty mountains looks so tiny
Looks so tiny

Important: The song above is NOT stored on the Chordie server. The original song is hosted at www.guitaretab.com. Chordie works as a search engine and provides on-the-fly formatting. Chordie does not index songs against artists'/composers' will. To remove this song please click here.

Text color:
Chord color:
Chord grids: 
Font size:    
Page size: 

A Bm D Em F#m G
variations - click chord images

Login - add to songbook

Transpose chords

Tuning

Rating click stars to rate

Layout
Accuracy

SHARE PAGE  




You need to log in to post comments