Chordie logo

Black And Blue   Brand New Sin



-------------------------------------------------------------------------------
			     Brand New Sin - Black and Blue
-------------------------------------------------------------------------------
Tabbed by: aj
Email: mizmo21@yahoo.com

Tuning:drop c

D|---------------------------------------------------|
A|---------------------------------------------------|
F|---------------------------------------------------|
C|---------------------------------------------------|
G|--3-3-3-3-3-3-3------------------------------------|
C|--3-3-3-3-3-3-3------------------------------------|

fast up and down strokes ^

D|-------------------------------------------------|
A|-------------------------------------------------|
F|-------------------------------------------------|
C|--3--3--------5/8-8------------------------------|
G|--3--3--------3/6-6------------------------------|
C|--3--3-------------------------------------------|

D|---------------------------------------------------|
A|---------------------------------------------------|
F|---------------------------------------------------|
C|--6--8-----8---------------------------------------|
G|--6--8-----6---------------------------------------|
C|--6--8---------------------------------------------|

D|---------------------------------------------------|
A|---------------------------------------------------|
F|---------------------------------------------------|
C|--3--3-------------------5/8--8--------------------|
G|--3--3---3-3-3-3-3-3----3/6--6---------------------|
C|--3--3---3-3-3-3-3-3-------------------------------|


D|-------------------------------------------------|
A|-------------------------------------------------|
F|-------------------------------------------------|
C|--3--3--------5/8-8------------------------------|
G|--3--3--------3/6-6------------------------------|
C|--3--3-------------------------------------------|

D|---------------------------------------------------|
A|---------------------------------------------------|
F|---------------------------------------------------|
C|--8--8---6-----------------------------------------|
G|--6--8---6-----------------------------------------|
C|-----8---6-----------------------------------------|

D|-------------------------------------------------|
A|-------------------------------------------------|
F|-------------------------------------------------|
C|--3--3--------5/8-8------------------------------|
G|--3--3--------3/6-6------------------------------|
C|--3--3-------------------------------------------|

D|---------------------------------------------------|
A|---------------------------------------------------|
F|---------------------------------------------------|
C|--10---6---8---8---6---4---3-----6---8---8---------|
G|--8----6---6---8---6---4---3-----6---6---8---------|



Important: The song above is NOT stored on the Chordie server. The original song is hosted at www.guitaretab.com. Chordie works as a search engine and provides on-the-fly formatting. Chordie does not index songs against artists/composers will. To remove this song please click here.

This song is displayed as text-only. Transposing and tuning is only available for chordpro-songs.

Login - add to songbook

Rating click stars to rate

Layout
Accuracy

SHARE PAGE  



You need to log in to post comments