Chordie logo


Freedom   Bread



 Song freedom:
 group bread:
 tab writer: Alan Cul.

  (intro)
  ----------------------------------------------------------------------|
  ----------------------------------------------------------------------|
  ----------1-----2----2------------------------------------------------|
  --6---6---1-x7--2----2---1--------------------------------------------|
  --6---6---3-----4----4---1-x7---repeat-as-needed----------------------|
  --4---4------------------3--------------------------------------------|

  (chorus)
  ----------------------------------------------------------------------|
  ----------------------------------------------------------------------|
  --------1-------------------------------------------------------------|
  ---6----1-x8--1----6-----repeat-as-needed-----------------------------|
  ---6-x8-3-----1-x8-6-x16----------------------------------------------|


Important: The song above is NOT stored on the Chordie server. The original song is hosted at www.guitaretab.com. Chordie works as a search engine and provides on-the-fly formatting. Chordie does not index songs against artists/composers will. To remove this song please click here.

This song is displayed as text-only. Transposing and tuning is only available for chordpro-songs.

Login - add to songbook

Rating click stars to rate

Layout
Accuracy

Jango Player

SHARE PAGE  




You need to log in to post comments